Incubus - Agoraphobia Chords & Tabs

 

Agoraphobia Chords & Tabs

Incubus Chords & Tabs

Version: 4 Type: Tab 0 ratings
1 star 2 stars 3 stars 4 stars 5 stars
comments

Agoraphobia Tab

   
-------------------------------------------------------------------------------
			     AGORAPHOBIA - Incubus
-------------------------------------------------------------------------------
Tabbed by: Alex R

Tuning: Dropped D

Intro: Verse is just slight variation of intro
e|---------------------------------------------------------------|
B|---0---------------0---------------0---------------0-----------|
G|-----2---------------2---------------2---------------2---------|
D|-------------3-----------3-----4-------------3-----------------|
A|-------------------------------------------------------3-3-4-4-|
D|-0-----3---2---3-0-----3---3/4---0-----3---3-----0-----3-3-4-4-|

2nd part of verse: Variations of this
e|---------------------------------------------------------------|
B|---------------------------------------------------------------|
G|---------------------------2---2-------------------------------|
D|-----4-------3-------4-----3---3-----4-------3-------4---------|
A|---0-------3-------0-----3---------0-------3-------0---3-3-4-4-|
D|-0-----3---------0-----3---------0-----3---------0-----3-3-4-4-|

Pre-chorus: This part is hard to hear, so it could be inaccurate.
e|-----3-------3-------3-------3-|
B|-------------------------------|
G|-------------------------------|
D|---5-------5-------5-------5---|
A|-3-----6---------3-----6-------|
D|-------------------------------|

Chorus
e|-----------------------------------------------------------------|
B|-----------------------------------------------------------------|
G|-----------0-------------0-----------------0-------------2-------|
D|-----0---1-------3p0-------0---------0---1-------3p0-------4---0-|
A|---5---1-----0h1-------------1p0---5---1-----0h1-----0-------0---|
D|-5---------------------1---------5---------------------0---------|

e|-------------------------------------------------------|
B|-------------------------------------------------------|
G|-----------0-------------0-----------------0-----------|
D|-----0---1-------3p0-------0---------0---1-----------1-|
A|---5---1-----0h1-------------1p0---5---1-----0h1-----1-|
D|-5---------------------1---------5-------------------1-|
[ Tab from: http://www.guitartabs.cc/tabs/i/incubus/agoraphobia_tab_ver_4.html ]
End of 2nd chorus
e|-------------------------------------------------------------|
B|-------------------------------------------------------------|
G|-----------0-------------0-----------------0-----------------|
D|-----0---1-------3p0-------0---------0---1-------3p0-0-----0-|
A|---5---1-----0h1-------------1p0---5---1-----0h1-----0-----0-|
D|-5---------------------1---------5-------------------0-----0-|

Bridge
e|---------------------------------------------------------------|
B|---------------------------------------------------------------|
G|-7-----7-----7---5-3---3-----3---5-----5-----5---8-----8-----8-|
D|---------------------------------5-----5-----5---8-----8-----8-|
A|---------------------------------3-3-3-3-3-3-3---6-6-6-6-6-6-6-|
D|-8-8-8-8-8-8-8---6-6-6-6-6-6-6---------------------------------|

e|---------------------------------------------------------------|
B|---------------------------------------------------------------|
G|-7-----7-----7---5-3---3-----3---5-----5-----5---5-----5---3-3-|
D|---------------------------------5-----5-----5---4-----4---6-6-|
A|---------------------------------3-3-3-3-3-3-3-----------------|
D|-8-8-8-8-8-8-8---6-6-6-6-6-6-6-------------------6-6-6-6-------|

e|---------------------------------------------------------------|
B|---------------------------------------------------------------|
G|-7-----7-----7---5-3---3-----3---5-----5-----5---8-----8-----8-|
D|---------------------------------5-----5-----5---8-----8-----8-|
A|---------------------------------3-3-3-3-3-3-3---6-6-6-6-6-6-6-|
D|-8-8-8-8-8-8-8---6-6-6-6-6-6-6---------------------------------|

e|---------------------------------------------------------------|
B|---------------------------------------------------------------|
G|-7-----7-----7---5-3---3-----3---5-----5-----5---5-5-5-5-5-5-5-|
D|---------------------------------5-----5-----5---4-4-4-4-4-4-4-|
A|---------------------------------3-3-3-3-3-3-3-----------------|
D|-8-8-8-8-8-8-8---6-6-6-6-6-6-6---------------------------------|

e|-------------------------------------|
B|-------------------------------------|
G|-----------------------------------5-|
D|-5---5---5---5---------6-----------5-|
A|-6---6---6---6---4---4-----4-4h6-4-3-|
D|-------------------------------------|

End of last chorus
e|-------------------------------------------------------------|
B|-------------------------------------------------------------|
G|-----------0-------------0-----------------0-----------------|
D|-----0---1-------3p0-------0---------0---1-----------1-----1-|
A|---5---1-----0h1-------------1p0---5---1-----0h1-----1-----1-|
D|-5---------------------1---------5-------------------1-----1-|

| /  slide up
| \  slide down
| h  hammer-on
| p  pull-off
| ~  vibrato
| +  harmonic
| x  Mute note
===============================================================================
Comments