Incubus - Agoraphobia Chords & Tabs

 

Agoraphobia Chords & Tabs

Incubus Chords & Tabs

Version: 1 Type: Tab 0 ratings
1 star 2 stars 3 stars 4 stars 5 stars
comments

Agoraphobia Tab

Agoraphobia by Incubus

intro/verse

---------------------------------|
----0-------------0--------------|
------2-------------2-------0----|
--0----------3--0-------3-3------|
---------------------------------|
---------1-1----------1----------|

 pre chorus

--------------------------------------------|
-------8------------------------------------|
-----5--------0-----------------------------|
----------------0----------33333333---------|
----------6-6--------then:-33333333---------|
---8-----------------------11111111---------|


chorus 
----------------------------------------|
----------------------------------------|
------------0-------------0-------------|
------0-----------3----------3---3------|
----5-----6---6-----5-------------------|
--3-----6-------6-----6-1------6--------|

----------------------------------------|
-------------------------0--------------|
------------0--------------2------------|
------0-----------3----------4---4------|
----5-----6---6-----5---5------5--------|
--3-----6-------6-----6-----------------|
[ Tab from: http://www.guitartabs.cc/tabs/i/incubus/agoraphobia_tab.html ]
-------------------------------------|
-------------------------------------|
------------0-------------0----------|
------0-----------3----------3---3---|
----5-----6---6-----5----------------|
--3-----6-------6-----6-1------6-----|

-------------------------------------|
-------------------------------------|
------------0------------0-----------|
------0-----------3------3-----------|
----5-----6---6-----5----3-----------|
--3-----6-------6-----6--1-----------|

verse

pre chorus

-------------------------------|
-------------------------------|
---7--7--8--5--------5--5--3---|
---x--x--6--x-8-8--8-x--5--3---|
---x--x--6--6-6-6--6-6--3--1---|
---6--6------------------------|

------------------------------|
------------------------------|
---7--7--8--5--------5--5-----|
---x--x--6--x-8-8--8-x--5-6---|
---x--x--6--6-6-6--6-6--3-6---|
---6--6-------------------4---|

then play the top one again, then:

------------------------|
------------------------|
---7--7--8--5--------5--|
---x--x--6--x-8-8--8-x--|
---x--x--6--6-6-6--6-6--|
---6--6-----------------|

------------------------|
------------------------|
---8--6--5--------------|
---8--6--5--------------|
---6--4--3--------------|
------------------------|
Comments