Incubus - Admiration Chords & Tabs

 

Admiration Chords & Tabs

Incubus Chords & Tabs

Version: 4 Type: Tab

Admiration Tab

-------------------------------------------------------------------------------
			    Admiration - Incubus
-------------------------------------------------------------------------------
Tabbed by: Sean Mac

Email: stm5017@psu.edu

Tuning: Standard


this song definately ranks as one of my favorite incubus songs.  its not 
exactly their style but it still kicks ass!!!


intro/verse:

e|--------------------------------------------------|
B|--------------------------------------------------|
G|--------------------------------------------------|
D|--------------------------------------------------|
A|--0--0--0--0--0--0--0--0--2--2--2--0--0--0--0--0--|
E|--3--3--3--5--5--5--5--0--0--0--0--1--1--1--1--1--|

this riff comes in midway through the verse.
i don't think this is right, but its the general idea
[ Tab from: http://www.guitartabs.cc/tabs/i/incubus/admiration_tab_ver_4.html ]
e|--------------------------------------------------|
B|------3------5--------8--------10-----------------|
G|------4------6--------7--------9------------------|
D|----5------7--------7--------9----9---------------|
A|--5---------------7-------10--------10------------|
E|---------5----------------------------------------|

Chorus (listen to strumming)
e|--------------------------------------------------|
B|--------------------------------------------------|
G|--------------------------------------------------|
D|--5--5--5--7--7--7--7--0--2--2--2--3--3--3--3--3--|
A|--5--5--5--7--7--7--7--0--2--2--2--3--3--3--3--3--|
E|--3--3--3--5--5--5--5--0--0--0--0--1--1--1--1--1--|


BRIDGE:
e|--------------------------------------------------|
B|---------------------------------------1----------|
G|-------9-9-------4-4------5-5------2-----2--------|
D|----10---10--------5--------7--------3-----3------|
A|---------10----5---5----7---7----3-----------3----|
E|--8------8---3-----3--5-----0--1------------------|


it's a simple song, but a lot of the notes are hard to hear, so improvise a bit
and use this tab as a guide for rhythms and progressions


intro
verse i
chorus
verse ii
chorus 
bridge
verse i
chorus

===============================================================================