Incubus - Admiration Chords & Tabs

 

Admiration Chords & Tabs

Incubus Chords & Tabs

Version: 2 Type: Tab

Admiration Tab

Tabbed by: Jaimo
Email:

Havnt actually seen Stealth, but this is a wicked song.

Tuning: normal

Played throughout song:
e|----x-------x-------x-------x---------------------------------------------|
B|----x-------x-------x-------x---------------------------------------------|
G|----x-------x-------x-------x---------------------------------------------|
D|----5-------7-------2-------3---------------------------------------------|
A|----5-------7-------2-------3---------------------------------------------|
E|----3-------5-------0-------1---------------------------------------------|
[ Tab from: http://www.guitartabs.cc/tabs/i/incubus/admiration_tab_ver_2.html ]
Interlude thing:
e|----x-------x-------x-------x---------------------------------------------|
B|----x-------x-------x-------x---------------------------------------------|
G|----x-------x-------x-------x---------------------------------------------|
D|----10------5-------7-------3---------------------------------------------|
A|----10------5-------7-------3---------------------------------------------|
E|----8-------3-------5-------1---------------------------------------------|

Basically it really. Work out the strumming from the song. Dont rinse me if its slightly 
thats what it sounds like.