Incubus - A Crow Left Of The Murder Chords & Tabs

 

A Crow Left Of The Murder Chords & Tabs

Incubus Chords & Tabs

Version: 7 Type: Tab 0 ratings
1 star 2 stars 3 stars 4 stars 5 stars
comments

A Crow Left Of The Murder Tab

   
Band- Incubus
Album- A Crow Left Of The Murder

I didn't think this was the best Incubus album,I thought Morning View was a little bit better.

1.Megalomaniac
2.A Crow Left Of The Murder
3.Agoraphobia
4.Talk Show On Mute
5.Beware!Criminal
6.Sick Sad Little World
7.Pistola
8.Southern Girl
9.Priceless
10.Zee Deveel
11.Made For TV Movie
12.Smile Lines
13.Here In My Room
14.Leech

1.MEGALOMANIAC

E|----------------------------------------------------------------|
B|----------------------------------------------------------------|
G|--0-0-0-0-0-0-----0-0-0-0-0-0-----0-0-0-0-0-0-----0-0-0-0-0-0---|
D|--5-5-5-5-5-5b--5-5-5-5-5-5-5b--5-5-5-5-5-5-5b--5-5-5-5-5-5-5b--|
A|----------------------------------------------------------------|
E|----------------------------------------------------------------|



E|----------------------------------------------------------------|
B|----------------------8-8----8-------------------------8-8----8-|
G|--0---0-0---0-0-------0-0----0-----0---0-0---0-0-------0-0----0-|
D|--3/5-5-5/8-8-8-0---8-8-8----8---0-3/5-5-5/8-8-8-0---8-8-8----8-|
A|------------------6---6-6--6-6---------------------6---6-6--6-6-|
E|----------------------------------------------------------------|



E|----------------------------------------------------------------|
B|-----------------------8-8----8-------------------------8-8----8|
G|---0---0-0---0-0-------0-0----0-----0---0-0---0-0-------0-0----0|   X2
D|-0-3/5-5-5/8-8-8-0---8-8-8----8---0-3/5-5-5/8-8-8-0---8-8-8----8|
A|-------------------6---6-6--6-6---------------------6---6-6--6-6|
E|----------------------------------------------------------------|



E|----------------------------------------------------------------|
B|-----------------------8-8----8---------------------------------|
G|---0---0-0---0-0-------0-0----0-----0---0-0---0-0---8-8-8-------|
D|-0-3/5-5-5/8-8-8-0---8-8-8----8---0-3/5-5-5/8-8-8-0-8-8-8--8-8-8|
A|-------------------6---6-6--6-6---------------------6-6-6--7-7-7|
E|-----------------------------------------------------------8-8-8|



E|----------------------------------------------------------------|
B|----------------------------------------------------------------|
G|---------------8-8-8-----------------------8-8-8----------------|   X2
D|--5----5/8-8---8-8-8--8-8-8---5----5/8-8---8-8-8--8-8-8---------|
A|--5--0-5/8-8-0-6-6-6--7-7-7---5--0-5/8-8-0-6-6-6--7-7-7---------|
E|--3--0-3/6-6-0--------8-8-8---3--0-3/6-6-0--------8-8-8---------|

   "Ah, ha!"



E|-------------------------|--------1-----------------3-----------|
B|--------6----------------|----3-----3-----------6------6---6----|
G|--0---0------------------|--------------------------------------|
D|--3/5--------------------|--------------------------------------|
A|-------------------------|--3---3-------------6---6------6------|
E|-------------------------|--------------------------------------|

           "I hear you on the radio."



E|-------------------------|--------3-----------------1-----------|
B|-------(0)---------------|----6------6----------3------3--------|
G|--0-----0----------------|--------------------------------------|
D|--5\3-3-3----------------|--------------------------------------|
A|-------------------------|--6---6------6------3---3------3------|
E|-------------------------|--------------------------------------|



E|-------------------------|--------1-----------------3-----------|
B|--------6----------------|----3------3----------6------6---6----|
G|--0---0------------------|--------------------------------------|
D|--3/5--------------------|--------------------------------------|
A|-------------------------|--3---3------3------6---6------6------|
E|-------------------------|--------------------------------------|



E|-------------------------|--------3------------------1----------|
B|-------(0)---------------|----6------6-----------3------3---3---|
G|--0-----0---------0------|--------------------------------------|
D|--5\3-3-3b------3--------|--------------------------------------|
A|--------------3-----2----|--6---6------6-------3---3------3-----|
E|----------------------3--|--------------------------------------|



E|----------------------------------------------------------------|
B|-----------------------8-8----8---------------------------------|
G|---0---0-0---0-0-------0-0----0-----0---0-0---0-0---8-8-8-------|
D|-0-3/5-5-5/8-8-8-0---8-8-8----8---0-3/5-5-5/8-8-8-0-8-8-8--8-8-8|
A|-------------------6---6-6--6-6---------------------6-6-6--7-7-7|
E|-----------------------------------------------------------8-8-8|



E|----------------------------------------------------------------|
B|----------------------------------------------------------------|
G|---------------8-8-8-----------------------8-8-8----------------|   X2
D|--5----5/8-8---8-8-8--8-8-8---5----5/8-8---8-8-8--8-8-8---------|
A|--5--0-5/8-8-0-6-6-6--7-7-7---5--0-5/8-8-0-6-6-6--7-7-7---------|
E|--3--0-3/6-6-0--------8-8-8---3--0-3/6-6-0--------8-8-8---------|

   "Hey, Megalomaniac!"



E|-----------5-5-5-5-------|--------3------------------1----------|
B|--------6---6-6-6--------|----6------6-----------3------3---3---|
G|--0---0------------------|--------------------------------------|
D|--3/5--------------------|--------------------------------------|
A|-------------------------|--6---6------6-------3---3------3-----|
E|-------------------------|--------------------------------------|



E|-------------------------|--------1------------------3----------|
B|--------6----------------|----3------3-----------6------6---6---|
G|--0---0------------------|--------------------------------------|
D|--3/5--------------------|--------------------------------------|
A|-------------------------|--3---3------3-------6---6------6-----|
E|-------------------------|--------------------------------------|



E|-------------------------|--------3------------------1----------|
B|-------(0)---------------|----6------6-----------3------3---3---|
G|--0-----0----------------|--------------------------------------|
D|--5\3-3-3----------------|--------------------------------------|
A|-------------------------|--6---6------6-------3---3------3-----|
E|-------------------------|--------------------------------------|



E|-----------5-5-5-5-------|--------1------------------3----------|
B|--------6---6-6-6--------|----3------3-----------6------6---6---|
G|--0---0------------------|--------------------------------------|
D|--3/5--------------------|--------------------------------------|
A|-------------------------|--3---3------3-------6---6------6-----|
E|-------------------------|--------------------------------------|



E|-------------------------|--------3------------------1----------|
B|-------(0)---------------|----6------6-----------3------3---3---|
G|--0-----0---------0------|--------------------------------------|
D|--5\3-3-3b------3--------|--------------------------------------|
A|--------------3-----2----|--6---6------6-------3---3------3-----|
E|----------------------3--|--------------------------------------|



E|----------------------------------------------------------------|
B|-----------------------8-8----8---------------------------------|
G|---0---0-0---0-0-------0-0----0-----0---0-0---0-0---8-8-8-------|
D|-0-3/5-5-5/8-8-8-0---8-8-8----8---0-3/5-5-5/8-8-8-0-8-8-8--8-8-8|
A|-------------------6---6-6--6-6---------------------6-6-6--7-7-7|
E|-----------------------------------------------------------8-8-8|


E|----------------------------------------------------------------|
B|----------------------------------------------------------------|
G|---------------8-8-8-----------------------8-8-8----------------|   X4
D|--5----5/8-8---8-8-8--8-8-8---5----5/8-8---8-8-8--8-8-8---------|
A|--5--0-5/8-8-0-6-6-6--7-7-7---5--0-5/8-8-0-6-6-6--7-7-7---------|
E|--3--0-3/6-6-0--------8-8-8---3--0-3/6-6-0--------8-8-8---------|

(Very slow and deep phaser is added the 3rd and 4th time around)



E|--------10--------10--------10-------10-------------10--------10|
B|-----13--------13--------13----13-------13-------13--------13---|
G|--10--------10--------10----------10-------10-12--------12------|
D|----------------------------------------------------------------|
A|----------------------------------------------------------------|
E|----------------------------------------------------------------|



E|--------10-------10-------------10-------10-------10-------10---|
B|-----13----13-------13-------13-------13-------13----13-------13|
G|--12----------12-------12-10-------10-------10----------10------|
D|----------------------------------------------------------------|
A|----------------------------------------------------------------|
E|----------------------------------------------------------------|



E|-----------10-------10-------10-------10------------------------|
B|--------13-------13-------13----13-------13---------------------|
G|--10-12-------12-------12----------12---------------------------|
D|----------------------------------------------------------------|
A|----------------------------------------------------------------|
E|----------------------------------------------------------------|



E|----------------------------------------------------------------|
B|----------------------------------------------------------------|
G|--12-12-10-12--12-10-12--12-12-10-12-14-12-10-------------------|   X8
D|--10-10-10-10--10-10-10--10-10-10-10-10-10-10-------------------|
A|----------------------------------------------------------------|
E|----------------------------------------------------------------|

(Slow phaser is again added at the 5th through 8th time around)



E|----------------------------------------------------------------|
B|----------------------------------------------------------------|
G|--00000000000000000000000000000000------------------------------|
D|--55555555555555555555555555555555------------------------------|
A|----------------------------------------------------------------|
E|----------------------------------------------------------------|

(Start with palm mute, then crescendo)



E|----------------------------------------------------------------|
B|----------------------------------------------------------------|
G|---------------8-8-8-----------------------8-8-8----------------|   X4
D|--5----5/8-8---8-8-8--8-8-8---5----5/8-8---8-8-8--8-8-8---------|
A|--5--0-5/8-8-0-6-6-6--7-7-7---5--0-5/8-8-0-6-6-6--7-7-7---------|
E|--3--0-3/6-6-0--------8-8-8---3--0-3/6-6-0--------8-8-8---------|

(Slow phaser is again added at the 3rd time around untill the end of the song)

2.A CROW LEFT OF THE MURDER

(0:00)
E|----------------------------------------------------------------|
B|----------------------------------------------------------------|
G|----------------------------------------------------------------|   X2
D|--------9-------------------------------------------------------|
A|---9-11----11-9-11\---------2-----------------------------------|
E|-0--------------------0-2-4---4-2-4-----------------------------|



E|----------------------------------------------------------------|
B|----------------------------------------------------------------|
G|----------------------------------------------------------------|
D|--------13------------------------------------------------------|
A|---9-11-----11-9-11\---------6----------------------------------|
E|-0---------------------0-2-4---4-2-4----------------------------|



E|----------------------------------------------------------------|
B|----------------------------------------------------------------|
G|----------------------------------------------------------------|
D|--------9-------------4--444-2-------9--------------------------|
A|---9-11----11-9-11\--040-444-2--9-11----11-9-11\--------2-------|
E|-0-------------------020-222-0--------------------0-2-4---4-2-4-|


  (0:13)
E|----------------------------------------------------------------|
B|----------------------------------------------------------------|
G|----------------------------------------------------------------|
D|--------9-------------------------------------------------------|
A|---9-11----11-9-11\--------2------------------------------------|
E|-0-------------------0-2-4---4-2-4------------------------------|



E|----------------------------------------------------------------|
B|----------------------------------------------------------------|
G|----------------------------------------------------------------|
D|--------13------------------------------------------------------|
A|---9-11-----11-9-11\--------6-----------------------------------|
E|-0--------------------0-2-4---4-2-4-----------------------------|



E|----------------------------------------------------------------|
B|----------------------------------------------------------------|
G|----------------------------------------------------------------|
D|--------9-------------4--444-2-------9--------------------------|
A|---9-11----11-9-11\--040-444-2--9-11----11-9-11\--------2-------|
E|-0-------------------020-222-0--------------------0-2-4---4-2-4-|


  (0:24)
E|----------------------------------------------------------------|
B|----------------------------------------------------------------|
G|----------------------------------------------------------------|
D|--------9-------------------------------------------------------|
A|---9-11----11-9-11\--------2------------------------------------|
E|-0-------------------0-2-4---4-2-4------------------------------|



E|----------------------------------------------------------------|
B|----------------------------------------------------------------|
G|----------------------------------------------------------------|
D|--------13------------------------------------------------------|
A|---9-11-----11-9-11\--------6-----------------------------------|
E|-0--------------------0-2-4---4-2-4-----------------------------|



E|----------------------------------------------------------------|
B|----------------------------------------------------------------|
G|----------------------------------------------------------------|
D|--------9-------------4--444-2-------9--------------------------|
A|---9-11----11-9-11\--040-444-2--9-11----11-9-11\--------2-------|
E|-0-------------------020-222-0--------------------0-2-4---4-2-4-|


  (0:35)
E|----------------------------------------------------------------|
B|----------------------------------------------------------------|
G|----------------------------------------------------------------|
D|--------9-------------------------------------------------------|
A|---9-11----11-9-11\--------2------------------------------------|
E|-0-------------------0-2-4---4-2-4------------------------------|



E|----------------------------------------------------------------|
B|----------------------------------------------------------------|
G|----------------------------------------------------------------|
D|--------13------------------------------------------------------|
A|---9-11-----11-9-11\--------6-----------------------------------|
E|-0--------------------0-2-4---4-2-4-----------------------------|



E|----------------------------------------------------------------|
B|----------------------------------------------------------------|
G|----------------------------------------------------------------|
D|--------9--------------4-44-------------------------------------|
A|---9-11----11-9-11\--0-4-44-------------------------------------|
E|-0-------------------0-2-22-------------------------------------|


  (0:42)
E|----------------------------------------------------------------|
B|----------------------------------------------------------------|
G|----------X-7-7------------------X-7-7--------------------------|  X2
D|-555-5-55-X-7-7-X-9-99--555-5-55-X-7-7-X-9-99-------------------|
A|-555-5-55-X-5-5-X-9-99--555-5-55-X-5-5-X-9-99-------------------|
E|-333-3-33-X-5-5-X-7-77--333-3-33-X-5-5-X-7-77-------------------|

   "From here on it's instinctual..."


  (0:53)
E|----------------------------------------------------------------|
B|----------------------------------------------------------------|
G|----------------------------------------------------------------|  X2
D|--------9-------------------------------------------------------|
A|---9-11----11-9-11---------2------------------------------------|
E|-0-------------------0-2-4---4-2-4------------------------------|



E|----------------------------------------------------------------|
B|----------------------------------------------------------------|
G|----------------------------------------------------------------|
D|--------13------------------------------------------------------|
A|---9-11-----11-9-11---------6-----------------------------------|
E|-0--------------------0-2-4---4-2-4-----------------------------|



E|----------------------------------------------------------------|
B|----------------------------------------------------------------|
G|----------------------------------------------------------------|
D|--------9-------------4--444-2-------9--------------------------|
A|---9-11----11-9-11---040-444-2--9-11----11-9-11---------2-------|
E|-0-------------------020-222-0--------------------0-2-4---4-2-4-|


  (1:06)
E|----------------------------------------------------------------|
B|----------------------------------------------------------------|
G|----------------------------------------------------------------|
D|--------9-------------------------------------------------------|
A|---9-11----11-9-11---------2------------------------------------|
E|-0-------------------0-2-4---4-2-4------------------------------|



E|----------------------------------------------------------------|
B|----------------------------------------------------------------|
G|----------------------------------------------------------------|
D|--------13------------------------------------------------------|
A|---9-11-----11-9-11---------6-----------------------------------|
E|-0--------------------0-2-4---4-2-4-----------------------------|



E|----------------------------------------------------------------|
B|----------------------------------------------------------------|
G|----------------------------------------------------------------|
D|--------9--------------4-44-------------------------------------|
A|---9-11----11-9-11---0-4-44-------------------------------------|
E|-0-------------------0-2-22-------------------------------------|


  (1:14)
E|----------------------------------------------------------------|
B|----------------------------------------------------------------|
G|----------X-7-7------------------X-7-7--------------------------|  X4
D|-555-5-55-X-7-7-X-9-99--555-5-55-X-7-7-X-9-99-------------------|
A|-555-5-55-X-5-5-X-9-99--555-5-55-X-5-5-X-9-99-------------------|
E|-333-3-33-X-5-5-X-7-77--333-3-33-X-5-5-X-7-77-------------------|

   "From here on it's instinctual..."


  (1:35)
E|----------------------------------------------------------------|
B|----------------------------------------------------------------|
G|-4----------4/7----------9\4-----------4-2---4---5---4-5-4-2----|  X2
D|-X----------X-X----------X---------------0---0---0---0-0-0-0----|
A|-2----------2/5----------7\2------------------------------------|
E|----------------------------------------------------------------|


  (1:57)
E|----------------------------------------------------------------|
B|----------------------------------------------------------------|
G|-444444444444/7777777777/99-444444444444--2---4---5---4-5-4-2---|  X3
D|-XXXXXXXXXXXX-XXXXXXXXXX-XX-XXXXXXXXXXXX--0---0---0---0-0-0-0---|
A|-222222222222/5555555555/77-222222222222------------------------|
E|----------------------------------------------------------------|


  (2:29)
E|----------------------------------------------------------------|
B|----------------------------------------------------------------|
G|-444444444444-777777777777-12-12-12-12-12-12-12-12-12-12-12-12--|
D|-XXXXXXXXXXXX-XXXXXXXXXXXX-X--X--X--X--X--X--X--X--X--X--X--X---|
A|-222222222222-555555555555-10-10-10-10-10-10-10-10-10-10-10-10--|
E|----------------------------------------------------------------|



E|----------------------------------------------------------------|
B|----------------------------------------------------------------|
G|--12-12-12-12-12-12-12-12-12-12-12-12-12-12-12-12-12-12---------|
D|--X--X--X--X--X--X--X--X--X--X--X--X--X--X--X--X--X--X----------|
A|--10-10\8--8--8--8--8--8--8--8--8--8--8--8--8--8--8--8----------|
E|----------------------------------------------------------------|


  (2:39)
E|----------------------------------------------------------------|
B|----------------------------------------------------------------|
G|----------------------------------------------------------------|  X2
D|--------9-------------------------------------------------------|
A|---9-11----11-9-11\---------2-----------------------------------|
E|-0--------------------0-2-4---4-2-4-----------------------------|



E|----------------------------------------------------------------|
B|----------------------------------------------------------------|
G|----------------------------------------------------------------|
D|--------13------------------------------------------------------|
A|---9-11-----11-9-11\---------6----------------------------------|
E|-0---------------------0-2-4---4-2-4----------------------------|



E|----------------------------------------------------------------|
B|----------------------------------------------------------------|
G|----------------------------------------------------------------|
D|--------9--------------4--444-2-------9-------------------------|
A|---9-11----11-9-11\---040-444-2--9-11----11-9-11\--------2------|
E|-0--------------------020-222-0--------------------0-2-4---4-2-4|


  (2:53)
E|----------------------------------------------------------------|
B|----------------------------------------------------------------|
G|----------------------------------------------------------------|
D|--------9-------------------------------------------------------|
A|---9-11----11-9-11\--------2------------------------------------|
E|-0-------------------0-2-4---4-2-4------------------------------|



E|----------------------------------------------------------------|
B|----------------------------------------------------------------|
G|----------------------------------------------------------------|
D|--------13------------------------------------------------------|
A|---9-11-----11-9-11\--------6-----------------------------------|
E|-0--------------------0-2-4---4-2-4-----------------------------|


  (2:58)
E|----------------------------------------------------------------|
B|----------------------------------------------------------------|
G|----------------------------------------------------------------|
D|--------9-------------4--444-2--------9-------------4---444-2---|
A|---9-11----11-9-11\--040-444-2---9-11----11-9-11\--040--444-2---|
E|-0-------------------020-222-0---------------------020--222-0---|



E|----------------------------------------------------------------|
B|----------------------------------------------------------------|
G|----------------------------------------------------------------|
D|------9-------------4--444-2-------13--13---13\---4--444-2------|
A|-9-11----11-9-11\--040-444-2--9-11-----11-9-11\--040-444-2------|
E|-------------------020-222-0---------------------020-222-0------|



E|----------------------------------------------------------------|
B|----------------------------------------------------------------|
G|----------------------------------------------------------------|
D|------13---13---13\---4--444-2-------13-------13-------13-------|
A|-9-11------11-9-11\--040-444-2--9-11-----9-11-----9-11----------|
E|---------------------020-222-0----------------------------------|



E|----------------------------------------------------------------|
B|----------------------------------------------------------------|
G|----------------------------------------------------------------|
D|------13-------13-------13-------13-------13-------13-------13--|
A|-9-11-----9-11-----9-11-----9-11-----9-11-----9-11-----9-11-----|
E|----------------------------------------------------------------|



E|----------------------------------------------------------------|
B|----------------------------------------------------------------|
G|----------------------------------------------------------------|
D|------13-------13-------13-------13----4--444-2-----------------|
A|-9-11-----9-11-----9-11-----9-11------040-444-2-----------------|
E|--------------------------------------020-222-0-----------------|

3.AGORAPHOBIA

Tuning: DADGBE

Riff 1:
------------------------------------------------------------------------|
---0-----------------0------------------0----------------0--------------|
-----2-----------------2------------------2----------------2------------|
-------------3-3------------3-3-4-4--------------3-3-------------4-4-3--|
--------3--3-3-3---------3--3-3-4-4---------3--3-3-3---------3-3-4-4-3--|
-0------3--3-3-3---0-----3--3-3-4-4---0-----3--3-3-3---0-----3-3-4-4-3--|

Riff 2:
--------------------------------|
--------------------------------|
--------------------------2---2-|
-----3-------3-------3----3---3-|
---5-------5-------5------------|
-0-----3-------3-0-----3----3---|

Riff 2a:
-----------------------------------|
-----------------------------------|
-----------------------------------|
-----3-------3-------3----4-4------|
---5-------5-------5------4-4-3----|
-0-----3-------3-0-----3--4-4-3----|


Riff 3 (not quite sure about this, but sounds ok):
-----3------3--------3-------3--------3-----3--------3-----3---|
---1------1--------1-------1--------1-----1--------1-----1-----|
---------------------------------------------------------------|
-------1-------1-3------1------1-3-----1------1-3------1-----1-| 
-3-------------------------------------------------------------|
---------------------------------------------------------------| 

Riff 3a:
-----3------3--------3-------3--------3-----3--------------------|
---1------1--------1-------1--------1-----1----------------------|
-----------------------------------------------------------------|
-------1-------1-3------1------1-3-----1------1--3-3-3-3-3-3-3-3-|
-3-----------------------------------------------3-3-3-3-3-3-3-3-|
-------------------------------------------------3-3-3-3-3-3-3-3-|



Riff 4:
--------------------------------------------------------------------|
--------------------------------------------------------------------|
-----------0-------------0------------------0--------------2--------|
-----0---1-------3-0-------0----------0---1-------3-0--------4---0--|
---5---1-----0-1-----1-------1-0----5---1-----0-1------1-------0----|
-5---------------------1----------5----------------------0----------|

Riff 4a:
----------------------------------------------------------|
----------------------------------------------------------| 
-----------0-------------0------------------0-------------|
-----0---1-------3-0-------0----------0---1-------3-0--1--|
---5---1-----0-1-----1-------1-0----5---1-----0-1------1--|
-5---------------------1----------5--------------------1--|

Riff 4b:
---------------------------------------------------------------|
---------------------------------------------------------------|
-----------0-------------0------------------0------------------|
-----0---1-------3-0-------0----------0---1-------3-0----0--0--|
---5---1-----0-1-----1-------1-0----5---1-----0-1--------0--0--| 
-5---------------------1----------5----------------------0--0--| 

Riff 4c:
------------------------------------------------------------|
------------------------------------------------------------| 
-----------0-------------0------------------0---------------|
-----0---1-------3-0-------0----------0---1-------3-0--1--1-|
---5---1-----0-1-----1-------1-0----5---1-----0-1------1--1-|
-5---------------------1----------5--------------------1--1-|
                                                                             
Riff 5 (my best guessings here... very difficult to listen):
------------------------------------------------------------------------------|
------------------------------------------------------------------------------|
-----------8------------------------------------------------------------------|
-12---12---8--10--8--10--8----10--8-10---10-10-8-10-10-8-10-8--1-1-0-1-1-0-1--|
--8-8--8-8-8---6--6---6--6--6--6--6--6---10-10-8-10-10-8-10-8--1-1-0-1-1-0-1--|
--8-8--8-8-8---6--6---6--6--6--6--6--6---10-10-8-10-10-8-10-8--1-1-0-1-1-0-1--|
                                                                              
Riff 5a:
--------------------------------------------------------------------------------------|
--------------------------------------------------------------------------------------|
-----------8--------------------------------------------------------------------------|
-12---12---8--10--8--10--8----10--8-10---10-10-8-10-10-8-10-8--10--8--10--8-----8--8--|
--8-8--8-8-8---6--6---6--6--6--6--6--6---10-10-8-10-10-8-10-8---6--6---6--6--6--6--6--|
--8-8--8-8-8---6--6---6--6--6--6--6--6---10-10-8-10-10-8-10-8---6--6---6--6--6--6--6--|

Riff 5b:
---------------------------------------------------------------------------------|
---------------------------------------------------------------------------------|
-----------8---------------------------------------------------------------------|
-12---12---8--10--8--10--8----10--8-10-------------------------------------------|
--8-8--8-8-8---6--6---6--6--6--6--6--6---13-11-10-10---8-10--10-10-10-10--10-10--|
--8-8--8-8-8---6--6---6--6--6--6--6--6---10-10-10-10--10-10--10-10-10-10--10-10--|
                                                                              
Riff 5c:
---------------------------------------------------------------|
---------------------------------------------------------------|
-----------8---------------------------------------------------|
-12---12---8--10--8--10--8----10--8-10---10-10-8-10-10-8-10-8--|
--8-8--8-8-8---6--6---6--6--6--6--6--6---10-10-8-10-10-8-10-8--|
--8-8--8-8-8---6--6---6--6--6--6--6--6---10-10-8-10-10-8-10-8--|

Riff 6:
----------|
----------|
-5--5--5--|
-4--4--4--|
----------|
-6--6--6--|

Fill 1:
-----------------|
----------6-8-9--|
---5-7-8---------|
-8---------------|
-----------------|
-----------------|

Fill 2:
--------|
--------|
-5-7-8--|
--------|
--------|
--------|

Riff 7:
--------------------------------------|
--------------------------------------|
---------------1----------------------|
-5-5-3-5-5-3-5-1--6-6-6-6---6-6-6--3--|
-1-1-1-1-1-1-1-1--6-6-4---4-4-6-4--3--|
-1-1-1-1-1-1-1-1-------------------3--|

4.TALK SHOW ON MUTE

standard tunning
intro;
|-----------------|-----------------|-----------------|-------------------|
|-----------------|-----------------|-----------------|-------------------|
|-----------0-----|-----------0-----|-----------0-----|-------------------|
|-2-2-0-2-----2-0-|-2-2-0-2-----2-0-|-2-2-0-2-----2---|-2-2-0-2-0-/9-9-0--|
|-3-3-0-3-3-----0-|-3-3-0-3-3-----0-|-0-0-0-0-0-----0-|-0-0-0-0-0-/7-7-0--|
|-----------------|-----------------|-----------------|-------------------|

  PM------|         PM------|         PM------|         PM------|
|-----------------|-----------------|-----------------|-------------------|
|-----------------|-----------------|-----------------|-------------------|
|-----------0-----|-----------0-----|-----------0-----|-------------------|
|-2-2-0-2-----2-0-|-2-2-0-2-----2-0-|-2-2-0-2-----2---|-2-2-0-2-0-/9-9-0--|
|-3-3-0-3-3-----0-|-3-3-0-3-3-----0-|-0-0-0-0-0-----0-|-0-0-0-0-0-/7-7-0--|
|-----------------|-----------------|-----------------|-------------------|

  PM------|         PM------|         PM------|         PM------|
|-----------------|-----------------|-----------------|---------------------|
|-----------------|-----------------|-----------------|---------------------|
|-----------0-----|-----------0-----|-----------0-----|---------------------|
|-2-2-0-2-----2-0-|-2-2-0-2-----2-0-|-2-2-0-2-----2---|-2-2-0-2-0-/9-9-10---|
|-3-3-0-3-3-----0-|-3-3-0-3-3-----0-|-0-0-0-0-0-----0-|-0-0-0-0-0-/7-7--8---|
|-----------------|-----------------|-----------------|---------------------|

|---------------------|--------------------------|----3----------|----------0------|
|-----10-----10-10-10-|----10-10-10-10-10-10-----|----3--------6-|---6------0------|
|------0------0--0--0-|-----0--0--0--0--0--0-----|----4--------4-|---4------0------|
|-10--10-----10-10-10-|----10-10-10-10-10-10-----|----5--------3-|---3------2------|
|--8---8------8--8--8-|-----8--8--8--8--8--8-----|-5--5--5-5-5-5-|---5----2--------|
|---------------------|----------------------0-0-|-3--3--3-3-3-3-|---3--0------0-0-|

|--------------------|--------------------------|----3----3---6-|-(6)\\3--3-3-3-3-3--|
|----10--10-10-10-10-|----10-10-10-10-10-10-----|----3----3---6-|-(6)\\3--3-3-3-3-3--|
|-----9---9--9--9--9-|-----9--9--9--9--9--9-----|----4----4---7-|-(7)\\4--4-4-4-4-4--|
|----10--10-10-10-10-|----10-10-10-10-10-10-----|----5----5---8-|-(8)\\5--5-5-5-5-5--|
|-8---8---8--8--8--8-|-----8--8--8--8--8--8-----|-5--5--5-5-5/8-|-(8)\\5--5-5-5-5-5--|
|--------------------|----------------------0-0-|-3--3--3-3-3/6-|-(6)\\3--3-3-3-3-3--|

|-----------|----------|-^0-----------|--------|
|-^0--------|----------|-^0-----------|--------|
|-^0--------|----------|-^2-----------|--------|
|-^2--------|----------|-^2-----------|--------|
|-^3--------|----------|-^0----(0)----|-(0)----|
|-----------|----------|--------------|--------|

|-----------|----------|-----------|--------------|
|-^0--------|----------|-^0--------|--------------|
|-^0--------|----------|-^2--------|--------------|
|-^2--------|----------|-^2--------|--------9-9-0-|
|-^3--------|----------|-^0--------|--------7-7-0-|
			

solo
|----------------|-------------------|--------------------|----------------|
|----------------|-------------------|--------------------|----------------|
|----------------|-------------------|---------5----------|--------0----0--|
|----------------|-5---5-7-5h7-5---7-|-5h7-5-7---7-5-5h7--|----0-5-5--0----|
|-5h7--------5-7-|---7-----------7---|--------------------|----------------|
|----------------|-------------------|--------------------|----------------|

|---------------------|----------------------------------|--------------|---------------|
|---------------------|----------------------------------|--------------|---------------|
|-0-0--0--0-----0--0--|--0-------------0--0-----0--------|---------5----|--------5------|
|-5-7-10-10/12\\10-12-|-12/14-(14)\\12-12-12\\10-10\\7-7-|-7\\5-5-7-----|----------7----|
|---------------------|----------------------------------|--------------|------------7/-|
|---------------------|----------------------------------|--------------|---------------|

|-----------------------|----------------------|-----------------|-----------------|
|-------10--------10----|----------------------|-----------------|-----------------|
|----------9------------|----------------------|-9---9-7-----7-7-|---9---9p7---7---|
|----10--------10----10-|-10-10-10-10\\9-9-7-7-|---7-------7-----|-----7-----7---7-|
|-/8--------------------|----------------------|-----------------|-----------------|
|-----------------------|----------------------|-----------------|-----------------|

|-----------------|-----------------|----------------|--------------------|
|-----------------|-----------------|----------------|--------------------|
|-7\\---5----5---5|-7---5-----5---5-|---4-4----4---4-|---4-4-4-4-4-4------|
|----7----7---7---|---7---7-7---7---|-7-7-7--7---7-5-|---5-5-5-5-5-5-0-0--|
|-----------------|-----------------|----------------|--------------------|

5.BEWARE!CRIMINAL

Intro 

E-----|------------------|
B-----|-7--7-7-----------|
G-X-b6|----------b6-6-xb6|
D-X-b6|---4-4--4-b4-6-xb6|
A-----|-------------4----|
E-----|------------------|


Verse 

E------------------|-------------|
B-7--7-7-----------|-------------|
G----------b6-6-xb6|-6666-22-----|
D---4-4--4-b4-6-xb6|-6666-22-77-2|
A-------------4----|-4444-00-77-2|
E------------------|---------55-0|

Chorus 

E--------------------------------------|
B----------6-666666--------------------|
G-2-222222-x-xxxxxx--------------------|
D-2-222222-3-333333-4x4x444--3x333-2222|
A-0-000000----------4x4x444--3x333-2222|
E-------------------2x2x2220-1x111-0000|

E--------------------------------------|
B----------6-666666--------------------|
G-2-222222-x-xxxxxx--------------------|
D-2-222222-3-333333-4-444444-3333-2222-|
A-0-000000----------4-444444-3333-2222-|
E-------------------2-222222-1111-0000-|
  
E--------------------------------------|
B-------------------6-666666-----------|
G-2-222222----------x-xxxxxx-----------|
D-2-222222-6-666666-3-333333-4444-3333-|
A-0-000000-4-444444----------4444-3333-|
E----------4-444444----------2222-1111-|
  
E-----0-----------|----------------|
B-----6-6-6666666-|--------^5-^5-^5|
G-222---x-xxxxxxx-|----------------|
D-222---3-3333333-|-2--------------|
A-000-------------|-2--------------|
E-----------------|-0--------------|

Interlude

E-----------------------------|
B-----------------------------|
G-----------------------------|
D-----------------------------|
A-----4-----4-2-----4-----4-7-|
E-2-2---0-0-----2-2---0-0-----|

E-----------------------------|
B-----------------------------|
G-----------------------------|
D-4-4-------------------------|
A-----4--7-7--4------4-----4-2|
E--------0-0-----2-2---0-0----|

Last Chorus

E-----------------------------------|
B-------2--------7------------------|
G-----2--------6-------3---------2--|
D---2--------4-------4---4-----3---3|
A-0--------0-----------------3------|
E--------0---------2-------1--------|

Strum slowly

E--------------------------------|
B-2-----2-7-----7----------------|
G-2---2---6---6------------------|
D-2-2-----4-4-----4x4x4x4-3x3x2x2|
A-0-------0-------4x4x4x4-3x3x2x2|
E-----------------2x2x2x2-1x1x0x0|

6.SICK SAD LITTLE WORLD

Intro

e|--------------------------------------------------------------------------|
B|---------------------------------------------------0-0--------------------|
G|---------------------------------------------------4-4-x-1--1-1-x-x-------|
D|------------------4--------------2-----------------2-2-x-2--2-2-x-x-4-4-4-|
A|-------4--4---------------0h2h4----4-2-0-2-4--4-4-x------0--0-0-x-x-4-4-4-|
E|--0-4---4--4--0-4---4-0~~-------------------------------------------2-2-2-|

e|-------------------------------------------------------------------------|
B|---------------------------------------------------0-0-------------------|
G|---------------------------------------------------4-4-x-----------------|
D|------------------4--------------2-----------------2-2-x-4-4-4-x-x-7-7-7-|
A|-------4--4---------------0h2h4----4-2-0-2-4--4-4-x------4-4-4-x-x-7-7-7-|
E|--0-4---4--4--0-4---4-0~~--------------------------------2-2-2-x-x-5-5-5-|


[00:25]

e|-------------------------------------------------------------------------------------------------|
B|-------------------------------------------------------------------------------------------------|
G|-----------------------------------------------------------------------------------6---6-6-6---6-|
D|-------------------------------------------------------------------------------------------------|
A|-4---4-4-4---4------4---4-4-4---4-0---0-0-0---0--------------------------------------------------|
E|-------------------------------------------------2---2-2-2---2------0---0-0-0---0----------------|


e|-------------------------------------------------------------------------------------------------|
B|-------------------------------------------------------------------------------------------------|
G|-------------------------------------------------------------------------------------------------|
D|-----------------------------------------------------------------------------------6---6-6-6---6-|
A|-4---4-4-4---4------4---4-4-4---4-0---0-0-0---0--------------------------------------------------|
E|-------------------------------------------------2---2-2-2---2------0---0-0-0---0----------------|


[00:51]

  2X
e|-------------------------------------------------|
B|-------------------------------------------------|
G|----6------6-7-2---------------------------------|
D|-4--6---4--6-7-2---------------------------------|
A|-4--4---4--4-5-0---------------------------------|
E|-2------2----------------------------------------|

[02:56]
                                       
E||----------------------------------|---------0~----|
B||----------------------------------|---------0~----|
G||------4---4-------4---4-------4---|------2~-------|
D||----------------------------------|---------2~----|
A||----4---4---4---4---4---4---4-----|--4--0~--------|
E||--0-----------0-----------0-------|---------------|
~ = wah-wah


e|---------------------------------------------------------------|
B|---------------------------------------------------------------|
G|---------------------------------------------------------------|
D|-4/9~--9/11~-----11-13-11-13----11-13-11-13-11-13-14--9---(14)-|
A|---------------------------------------------------------------|
E|---------------------------------------------------------------|

[03:22]

e|-------------------------------------------------------------------------|
B|-------------------------------------------------------------------------|
G|-8/11\8--8/11\8---6/11\6----6h8p6-2h4--4/2-2-1-1--2--1h2p1---------------|
D|-------------------------------------------------------2--2/4--4---4/6-2-|
A|-------------------------------------------------------------------------|
E|-------------------------------------------------------------------------|


e|-12--12---------9------7------4--2h4p2p0h2---4------------------------------------4-5-|
B|-------9--9-7-----7\4----4\2-----------------------2/4-4/5--5\2--4p2-4/5-2-4-5--------|
G|--------------------------------------------------------------------------------------|
D|--------------------------------------------------------------------------------------|
A|--------------------------------------------------------------------------------------|
E|--------------------------------------------------------------------------------------|

[03:45]

e|-5//---------------12------------------------------------0--0--0-0-0-0-0-|
B|-5//---12---------------12--------------------------5-/7--9--0-0-0-0-0---|
G|-----------------9-----------11-------------------6----------9-9/8-8/9---|
D|----------------------9-------------------------5------------------------|
A|---------------------------9---------------------------------------------|
E|---------------------------------9/7----7/9------------------------------|

[03:59]

                                                         pm.......
e|-12-14-------------------------------------14--12--14--12-14-12--20b--20b-|
B|-------------------12-14-12-----12/14--12---------------------------------|
G|---------11-13------------------------------------------------------------|
D|--------------------------------------------------------------------------|
A|--------------------------------------------------------------------------|
E|--------------------------------------------------------------------------|


e|-12/14--12--------------------------------------------------|
B|------------14-12---------------------12-14-12-------14-12--|
G|------------------11---11bbr----11-13-----------11b---------|
D|------------------------------------------------------------|
A|------------------------------------------------------------|
E|------------------------------------------------------------|

[04:18]

e|----------------------------------9--|
B|----5--------5--------5----------x---|
G|--6---6----6---6----6---6------6-----|
D|--------5--------5--------5----------|
A|-------------------------------------|
E|-------------------------------------|

This part is picked really fast with echo and wah/wah
e|---9---7--12--14--16------------------------|
B|---------------------14-12--9--7------------|
G|--------------------------------------------|
D|--------------------------------------------|
A|--------------------------------------------|
E|--------------------------------------------|

                             turn effect off here
e|-11-12-11--9--11-12-14-16-14-16-12-16-12-16-12-|
B|-----------------------------------------------|
G|-----------------------------------------------|
D|-----------------------------------------------|
A|-----------------------------------------------|
E|-----------------------------------------------|

 p= pulloff
e|-16p-12------16p-12------16-16-12-19-19--------|
B|-------16p-12------16p-12----------------------|
G|-----------------------------------------------|
D|-----------------------------------------------|
A|-----------------------------------------------|
E|-----------------------------------------------|

e|--19p-14------19p-14------19-19-19-19-19-------|
B|--------19p-14------19p-14---------------------|
G|-----------------------------------------------|
D|-----------------------------------------------|
A|-----------------------------------------------|
E|-----------------------------------------------|

                                                                
E||----------------------------------|----------0~---|
B||----------------------------------|----------0~---|
G||------4---4-------4---4-------4---|-------2~------|
D||----------------------------------|----------2~---|
A||----4---4---4---4---4---4---4-----|--4---0~-------|
E||--0-----------0-----------0-------|---------------|
~ = wah-wah

Song ends with main riff.

7.PISTOLA

(0:18)
E|----------------------------------------------------------------|
B|----------------------------------------------------------------|
G|-------13--------13-------13--------13--------------------------|   X2
D|----------------------------------------------------------------|
A|----11--------11----0------------------11-----------------------|
E|--0-------12----------10-----10-11------------------------------|



E|----------------------------------------------------------------|
B|----------------------------------------------------------------|
G|-------13--------13----------13--------13-----------------------|
D|----------------------------------------------------------------|
A|----11--------11----0---------------------11--------------------|
E|--0-------12----------10-10-----10-11---------------------------|



E|----------------------------------------------------------------|
B|----------------------------------------------------------------|
G|-------13--------13-------13-------13---------------------------|
D|----------------------------------------------------------------|
A|----11--------11----0-----------9-----9-------------------------|
E|--0-------12----------10-----10---------------------------------|


  (0:30)
E|----------------------------------------------------------------|
B|----------------------------------------------------------------|
G|-------13--------13-------13--------13--------------------------|   X2
D|----------------------------------------------------------------|
A|----11--------11----0------------------11-----------------------|
E|--0-------12----------10-----10-11------------------------------|



E|----------------------------------------------------------------|
B|----------------------------------------------------------------|
G|-------13--------13----------13--------13-----------------------|
D|----------------------------------------------------------------|
A|----11--------11----0---------------------11--------------------|
E|--0-------12----------10-10-----10-11---------------------------|



E|----------------------------------------------------------------|
B|----------------------------------------------------------------|
G|-------13--------13-------13-------13---------------------------|
D|----------------------------------------------------------------|
A|----11--------11----0-----------9-----9-------------------------|
E|--0-------12----------10-----10---------------------------------|

				    "My 


  (0:41)
E|----------------------------------------------------------------|
B|-------14-------14-------14------14-----------------------------|
G|----------------------------------------------------------------|    X2
D|----11-------11-------------------------------------------------|
A|--0-------0--------0--11----11-9----9---------------------------|
E|----------------------------------------------------------------|

    intention a bullet, my body a trigger finger."


  (0:47)
E|----------------------------------------------------------------|
B|----------------------------------------------------------------|
G|-------13--------13----------13--------13-----------------------|
D|----------------------------------------------------------------|
A|----11--------11----0---------------------11--------------------|
E|--0-------12----------10-10-----10-11---------------------------|



E|----------------------------------------------------------------|
B|----------------------------------------------------------------|
G|-------13--------13-------13--------13--------------------------|
D|----------------------------------------------------------------|
A|----11--------11----0------------------11-----------------------|
E|--0-------12----------10-----10-11------------------------------|


  (0:52)
E|----------------------------------------------------------------|
B|----------------------------------------------------------------|
G|----------------------------------------------------------------|
D|--10-10-10--10-10-10--10-10-10--10-10-10--10-10-10-10-----------|
A|--10-10-10--10-10-10--10-10-10--10-10-10--10-10-10-10-----------|
E|--8--8--8---8--8--8---8--8--8---8--8--8---8--8--8--8------------|

				  "Yeah, my pen is a pistola..."

[ Tab from: http://www.guitartabs.cc/tabs/i/incubus/a_crow_left_of_the_murder_tab_ver_7.html ]
E|----------------------------------------------------------------|
B|----------------------------------------------------------------|
G|----------------------------------------------------------------|
D|--7-7-7--7--7-7-7--2-2-2-2-2-2-2-2------------------------------|
A|--7-7-7--7--7-7-7--2-2-2-2-2-2-2-2------------------------------|
E|--5-5-5--5--5-5-5--0-0-0-0-0-0-0-0------------------------------|


  (0:58)
E|----------------------------------------------------------------|
B|----------------------------------------------------------------|
G|----------------------------------------------------------------|
D|--10-10-10--10-10-10--10-10-10--10-10-10--10-10-10-10-----------|
A|--10-10-10--10-10-10--10-10-10--10-10-10--10-10-10-10-----------|
E|--8--8--8---8--8--8---8--8--8---8--8--8---8--8--8--8------------|



E|----------------------------------------------------------------|
B|----------------------------------------------------------------|
G|----------------------------------------------------------------|
D|--7-7-7--7--7-7----X-2--2-2-------------------------------------|
A|--7-7-7--7--7-7----X-2--2-2-------------------------------------|
E|--5-5-5--5--5-5----X-0--0-0-------------------------------------|


  (1:04)
E|----------------------------------------------------------------|
B|----------------------------------------------------------------|
G|----------------------------------------------------------------|
D|--10-10-10--10-10-10--10-10-10--10-10-10--10-10-10-10-----------|
A|--10-10-10--10-10-10--10-10-10--10-10-10--10-10-10-10-----------|
E|--8--8--8---8--8--8---8--8--8---8--8--8---8--8--8--8------------|



E|----------------------------------------------------------------|
B|----------------------------------------------------------------|
G|----------------------------------------------------------------|
D|--7-7-7--7--7-7-7--2-2-2-2-2-2-2-2------------------------------|
A|--7-7-7--7--7-7-7--2-2-2-2-2-2-2-2------------------------------|
E|--5-5-5--5--5-5-5--0-0-0-0-0-0-0-0------------------------------|


  (1:09)
E|----------------------------------------------------------------|
B|----------------------------------------------------------------|
G|----------------------------------------------------------------|
D|--10-10-10--10-10-10--10-10-10--10-10-10--10-10-10-10-----------|
A|--10-10-10--10-10-10--10-10-10--10-10-10--10-10-10-10-----------|
E|--8--8--8---8--8--8---8--8--8---8--8--8---8--8--8--8------------|



E|----------------------------------------------------------------|
B|----------------------------------------------------------------|
G|----------------------------------------------------------------|
D|--7-7-7--7--7-7----X-2--2-2-------------------------------------|
A|--7-7-7--7--7-7----X-2--2-2-------------------------------------|
E|--5-5-5--5--5-5----X-0--0-0-------------------------------------|


  (1:15)
E|----------------------------------------------------------------|
B|----------------------------------------------------------------|
G|-------13--------13-------13--------13--------------------------|   X2
D|----------------------------------------------------------------|
A|----11--------11----0------------------11-----------------------|
E|--0-------12----------10-----10-11------------------------------|



E|----------------------------------------------------------------|
B|----------------------------------------------------------------|
G|-------13--------13----------13--------13-----------------------|
D|----------------------------------------------------------------|
A|----11--------11----0---------------------11--------------------|
E|--0-------12----------10-10-----10-11---------------------------|



E|----------------------------------------------------------------|
B|----------------------------------------------------------------|
G|-------13--------13-------13-------13---------------------------|
D|----------------------------------------------------------------|
A|----11--------11----0-----------9-----9-------------------------|
E|--0-------12----------10-----10---------------------------------|


  (1:26)
E|----------------------------------------------------------------|
B|-------14-------14-------14------14-----------------------------|
G|----------------------------------------------------------------|    X2
D|----11-------11-------------------------------------------------|
A|--0-------0--------0--11----11-9----9---------------------------|
E|----------------------------------------------------------------|



E|----------------------------------------------------------------|
B|----------------------------------------------------------------|
G|-------13--------13----------13--------13-----------------------|
D|----------------------------------------------------------------|
A|----11--------11----0---------------------11--------------------|
E|--0-------12----------10-10-----10-11---------------------------|



E|----------------------------------------------------------------|
B|----------------------------------------------------------------|
G|-------13---------13--------13--------13------------------------|
D|----------------------------------------------------------------|
A|----11---------11-----0------------------11---------------------|
E|--0--------12-----------10-----10-11----------------------------|


  (1:37)
E|----------------------------------------------------------------|
B|----------------------------------------------------------------|
G|----------------------------------------------------------------|
D|--10-10-10--10-10-10--10-10-10--10-10-10--10-10-10-10-----------|
A|--10-10-10--10-10-10--10-10-10--10-10-10--10-10-10-10-----------|
E|--8--8--8---8--8--8---8--8--8---8--8--8---8--8--8--8------------|

				  "Yeah, my pen is a pitola..."


E|----------------------------------------------------------------|
B|----------------------------------------------------------------|
G|----------------------------------------------------------------|
D|--7-7-7--7--7-7-7--2-2-2-2-2-2-2-2------------------------------|
A|--7-7-7--7--7-7-7--2-2-2-2-2-2-2-2------------------------------|
E|--5-5-5--5--5-5-5--0-0-0-0-0-0-0-0------------------------------|


  (1:43)
E|----------------------------------------------------------------|
B|----------------------------------------------------------------|
G|----------------------------------------------------------------|
D|--10-10-10--10-10-10--10-10-10--10-10-10--10-10-10-10-----------|
A|--10-10-10--10-10-10--10-10-10--10-10-10--10-10-10-10-----------|
E|--8--8--8---8--8--8---8--8--8---8--8--8---8--8--8--8------------|



E|----------------------------------------------------------------|
B|----------------------------------------------------------------|
G|----------------------------------------------------------------|
D|--7-7-7--7--7-7----X-2--2-2-------------------------------------|
A|--7-7-7--7--7-7----X-2--2-2-------------------------------------|
E|--5-5-5--5--5-5----X-0--0-0-------------------------------------|


  (1:49)
E|----------------------------------------------------------------|
B|----------------------------------------------------------------|
G|----------------------------------------------------------------|
D|--10-10-10--10-10-10--10-10-10--10-10-10--10-10-10-10-----------|
A|--10-10-10--10-10-10--10-10-10--10-10-10--10-10-10-10-----------|
E|--8--8--8---8--8--8---8--8--8---8--8--8---8--8--8--8------------|



E|----------------------------------------------------------------|
B|----------------------------------------------------------------|
G|----------------------------------------------------------------|
D|--7-7-7--7--7-7-7--2-2-2-2-2-2-2-2------------------------------|
A|--7-7-7--7--7-7-7--2-2-2-2-2-2-2-2------------------------------|
E|--5-5-5--5--5-5-5--0-0-0-0-0-0-0-0------------------------------|


  (1:54)
E|----------------------------------------------------------------|
B|----------------------------------------------------------------|
G|----------------------------------------------------------------|
D|--10-10-10--10-10-10--10-10-10--10-10-10--10-10-10-10-----------|
A|--10-10-10--10-10-10--10-10-10--10-10-10--10-10-10-10-----------|
E|--8--8--8---8--8--8---8--8--8---8--8--8---8--8--8--8------------|



E|----------------------------------------------------------------|
B|----------------------------------------------------------------|
G|----------------------------------------------------------------|
D|--7-7-7--7--7-7----X-2--2-2-------------------------------------|
A|--7-7-7--7--7-7----X-2--2-2-------------------------------------|
E|--5-5-5--5--5-5----X-0--0-0-------------------------------------|


  (2:00)
E|----------------------------------------------------------------|
B|----------------------------------------------------------------|
G|--3-3--X-3--3-3-3--3-3-3----------------------------------------|   X8
D|--2-2--X-2--2-2-2--2-2-2----------------------------------------|
A|----------------------------------------------------------------|
E|----------------------------------------------------------------|


  (2:22)
E|----------------------------------------------------------------|
B|----------------------------------------------------------------|
G|----------------4-4---------------------------------------------|   X4
D|--4-------------4-4---4-------------4---------------------------|
A|----2-2-0-------2-2-----2-2-0---------2-------------------------|
E|----------4-2-0---------------4-2-0-----0-2-0-------------------|



During the solo there are 2 guitar parts. The following part 
(Part 1) is played to back up the solo:

  (2:40) Guitar Part 1 w/phaser:

E|-11-11-11-11-11-11-11-11-11-11-11-11-11-11-11-11-11-11-12-12-12-|
B|-10-10-10-10-10-10-10-10-10-10-10-10-10-10-10-10-10-10-10-10-10-|
G|-11-11-11-11-11-11-11-11-11-11-11-11-11-11-11-11-11-11-11-11-11-|   X4
D|----------------------------------------------------------------|
A|----------------------------------------------------------------|
E|----------------------------------------------------------------|


  (2:40) Guitar Solo:

E|-2/14--14-14--14-14-14-14-14p11-11-11-11-11-11-11---------------|
B|--------------------------------------------------12-12-10-10-10|
G|----------------------------------------------------------------|
D|----------------------------------------------------------------|
A|----------------------------------------------------------------|
E|----------------------------------------------------------------|



E|-----------------------------------------/11-11-11-14p11-11-11--|
B|--12-12-9b10r9--7-(crazy effects here)--------------------------|
G|----------------------------------------------------------------|
D|----------------------------------------------------------------|
A|----------------------------------------------------------------|
E|----------------------------------------------------------------|



E|--14p11-11-11--------------11-13-14-11-13-14-11-11-13-14-13-----|
B|--------------14-12-11-12-----------------------------------\3--|
G|----------------------------------------------------------------|
D|----------------------------------------------------------------|
A|----------------------------------------------------------------|
E|----------------------------------------------------------------|


  (3:00)
E|----------------------------------------------------------------|
B|----------------------------------------------------------------|
G|--3-3--X-3--3-3-3--3-3-3----------------------------------------|   X4
D|--2-2--X-2--2-2-2--2-2-2----------------------------------------|
A|----------------------------------------------------------------|
E|----------------------------------------------------------------|


  (3:11)
E|----------------------------------------------------------------|
B|----------------------------------------------------------------|
G|-------13--------13-------13--------13--------------------------|   X2
D|----------------------------------------------------------------|
A|----11--------11----0------------------11-----------------------|
E|--0-------12----------10-----10-11------------------------------|



E|----------------------------------------------------------------|
B|----------------------------------------------------------------|
G|-------13--------13----------13--------13-----------------------|
D|----------------------------------------------------------------|
A|----11--------11----0---------------------11--------------------|
E|--0-------12----------10-10-----10-11---------------------------|



E|----------------------------------------------------------------|
B|----------------------------------------------------------------|
G|-------13--------13-------13-------13---------------------------|
D|----------------------------------------------------------------|
A|----11--------11----0-----------9-----9-------------------------|
E|--0-------12----------10-----10---------------------------------|


  (3:22)
E|----------------------------------------------------------------|
B|----------------------------------------------------------------|
G|-------13--------13-------13--------13--------------------------|   X4
D|----------------------------------------------------------------|
A|----11--------11----0------------------11-----------------------|
E|--0-------12----------10-----10-11------------------------------|


  (3:33)
E|----------------------------------------------------------------|
B|----------------------------------------------------------------|
G|----------------------------------------------------------------|
D|--10-10-10--10-10-10--10-10-10--10-10-10--10-10-10-10-----------|
A|--10-10-10--10-10-10--10-10-10--10-10-10--10-10-10-10-----------|
E|--8--8--8---8--8--8---8--8--8---8--8--8---8--8--8--8------------|

				  "Yeah, my pen is a pitola..."


E|----------------------------------------------------------------|
B|----------------------------------------------------------------|
G|----------------------------------------------------------------|
D|--7-7-7--7--7-7-7--2-2-2-2-2-2-2-2------------------------------|
A|--7-7-7--7--7-7-7--2-2-2-2-2-2-2-2------------------------------|
E|--5-5-5--5--5-5-5--0-0-0-0-0-0-0-0------------------------------|


  (3:39)
E|----------------------------------------------------------------|
B|----------------------------------------------------------------|
G|----------------------------------------------------------------|
D|--10-10-10--10-10-10--10-10-10--10-10-10--10-10-10-10-----------|
A|--10-10-10--10-10-10--10-10-10--10-10-10--10-10-10-10-----------|
E|--8--8--8---8--8--8---8--8--8---8--8--8---8--8--8--8------------|



E|----------------------------------------------------------------|
B|----------------------------------------------------------------|
G|----------------------------------------------------------------|
D|--7-7-7--7--7-7----X-2--2-2-------------------------------------|
A|--7-7-7--7--7-7----X-2--2-2-------------------------------------|
E|--5-5-5--5--5-5----X-0--0-0-------------------------------------|


  (3:45)
E|----------------------------------------------------------------|
B|----------------------------------------------------------------|
G|----------------------------------------------------------------|
D|--10-10-10--10-10-10--10-10-10--10-10-10--10-10-10-10-----------|
A|--10-10-10--10-10-10--10-10-10--10-10-10--10-10-10-10-----------|
E|--8--8--8---8--8--8---8--8--8---8--8--8---8--8--8--8------------|



E|----------------------------------------------------------------|
B|----------------------------------------------------------------|
G|----------------------------------------------------------------|
D|--7-7-7--7--7-7-7--2-2-2-2-2-2-2-2------------------------------|
A|--7-7-7--7--7-7-7--2-2-2-2-2-2-2-2------------------------------|
E|--5-5-5--5--5-5-5--0-0-0-0-0-0-0-0------------------------------|


  (3:50)
E|----------------------------------------------------------------|
B|----------------------------------------------------------------|
G|----------------------------------------------------------------|
D|--10-10-10--10-10-10--10-10-10--10-10-10--10-10-10-10-----------|
A|--10-10-10--10-10-10--10-10-10--10-10-10--10-10-10-10-----------|
E|--8--8--8---8--8--8---8--8--8---8--8--8---8--8--8--8------------|



E|----------------------------------------------------------------|
B|----------------------------------------------------------------|
G|----------------------------------------------------------------|
D|--7-7-7--7--7-7----X-2--2-2---X-2--2-2---X-2--2-2---X-2--2-2----|
A|--7-7-7--7--7-7----X-2--2-2---X-2--2-2---X-2--2-2---X-2--2-2----|
E|--5-5-5--5--5-5----X-0--0-0---X-0--0-0---X-0--0-0---X-0--0-0----|


  (4:00)
E|----------------------------------------------------------------|
B|----------------------------------------------------------------|
G|----------------------------------------------------------------|
D|--X-2--2-2---X-2--2-2---X-2--2-2---X-2--2-2---X-2--2-2----------|
A|--X-2--2-2---X-2--2-2---X-2--2-2---X-2--2-2---X-2--2-2----------|
E|--X-0--0-0---X-0--0-0---X-0--0-0---X-0--0-0---X-0--0-0----------|

   (Downstroke the muted strums, upstroke the played ones. Strum
    near the bridge of the guitar.)


E|----------------------------------------------------------------|
B|----------------------------------------------------------------|
G|----------------------------------------------------------------|
D|--X-2--2-2---X-2--2-2---X-2--2-2----2---------------------------|
A|--X-2--2-2---X-2--2-2---X-2--2-2----2---------------------------|
E|--X-0--0-0---X-0--0-0---X-0--0-0----0---------------------------|

8.SOUTHERN GIRL

---|---5---5-|-----5---|---3-----|---------|---5---5-|-----5---|---3-----|----|
---|---0---0-|-----0---|---0-----|---------|---0---0-|-----0---|---0-----|----|
---|---5---5-|-----5---|---0---1-|---------|---5---5-|-----5---|---0---0-|----|
---|-------0-|-----0---|---x-----|-0-------|-------0-|-----0---|---x-----|-0--|
---|-0---0-5-|-------0-|-3-------|---------|-0---0-5-|-------0-|-3-------|----|
-0-|-------3-|---3-----|-----0-0-|---1-1-0-|-------3-|---3-----|-----0-1-|----|
 Intro:                                                                       

--------|---------------------------------------------------------------------|
--------|---------------------------------------------------------------------|
--------|---------------------------------------------------------------------|
--------|---------------------------------------------------------------------|
-3------|---------------------------------------------------------------------|
---1p0--|---------------------------------------------------------------------|
    (2x)                                                                      

---5---5-|-----5---|---3-----|---------|---5---5-|-----5---|---3-----|--------|
---0---0-|-----0---|---0-----|---------|---0---0-|-----0---|---0-----|--------|
---5---5-|-----5---|---0---1-|---------|---5---5-|-----5---|---0---0-|--------|
-------0-|-----0---|---x-----|-0-------|-------0-|-----0---|---x-----|-0------|
-0---0-5-|-------0-|-3-------|---------|-0---0-5-|-------0-|-3-------|---3----|
-------3-|---3-----|-----0-0-|---1-1-0-|-------3-|---3-----|-----0-1-|-----1p-|
 Verse 1:                                                                     

----|-------------------------------------------------------------------------|
----|-------------------------------------------------------------------------|
----|-------------------------------------------------------------------------|
----|-------------------------------------------------------------------------|
----|-------------------------------------------------------------------------|
-0--|-------------------------------------------------------------------------|
 (2x)                                                                         

-----5---|---5---x-|---------|-5-------|---------|-3-----x-|---------|-5------|
-----6---|---6---5-|---------|---5-----|-----3---|---3---6-|-----6---|---6----|
-----7---|---7---5-|-----5---|-----5---|-------4-|-------7-|-------7-|-----7--|
-----0---|---0---7-|-------7-|-------7-|---------|-------0-|---------|--------|
---------|---------|---------|---------|---------|---------|---------|--------|
---------|---------|---------|---------|---------|---------|---------|--------|
 Bridge:                                                                      

---|---------|-5-------|---------|-3-------|-3-----3-|-----3---|---------|----|
---|-----5---|---5-----|-----3---|---3-----|-1-----1-|-----1---|-----0-x-|----|
---|-------5-|-----5---|-------4-|-----4---|-2-----2-|-----2---|-----1-x-|----|
---|---------|-------7-|---------|---------|-3-----3-|-----3---|-----2-x-|----|
---|---------|---------|---------|---------|---------|---------|---2-2-x-|----|
---|---------|---------|---------|---------|---------|---------|-0-----x-|-3--|
                                                                              

-------|----------------------------------------------------------------------|
---3-x-|----------------------------------------------------------------------|
---4-x-|----------------------------------------------------------------------|
---5-x-|----------------------------------------------------------------------|
-5-5-x-|----------------------------------------------------------------------|
-----x-|----------------------------------------------------------------------|
                                                                              

---5---5-|-----5---|---3-----|---------|---5---5-|-----5---|---3-----|--------|
---0---0-|-----0---|---0-----|---------|---0---0-|-----0---|---0-----|--------|
---5---5-|-----5---|---0---1-|---------|---5---5-|-----5---|---0---0-|--------|
-------0-|-----0---|---x-----|-0-------|-------0-|-----0---|---x-----|-0------|
-0---0-5-|-------0-|-3-------|---------|-0---0-5-|-------0-|-3-------|---3----|
-------3-|---3-----|-----0-0-|---1-1-0-|-------3-|---3-----|-----0-1-|-----1p-|
 Chorus:                                                                      

----|---5---5-|-----5---|---3-----|---------|-1---1---|-1---1---|-0---0---|-3-|
----|---0---0-|-----0---|---0-----|---------|-1---1---|-1---1---|-0---0---|-3-|
----|---5---5-|-----5---|---0---1-|---------|-2---2---|-2---2---|-1---1---|-4-|
----|-------0-|-----0---|---x-----|-0-------|-3---3---|-3---3---|-2---2---|-5-|
----|-0---0-5-|-------0-|-3-------|---------|-3---3---|-3---3---|-2---2---|-5-|
-0--|-------3-|---3-----|-----0-0-|---1-1-0-|-1---1---|-1---1---|-0---0---|-3-|
                                                                              

----3---|---------------------------------------------------------------------|
----3---|---------------------------------------------------------------------|
----4---|---------------------------------------------------------------------|
----5---|---------------------------------------------------------------------|
----5---|---------------------------------------------------------------------|
----3---|---------------------------------------------------------------------|
                                                                              

-----------|----------|---------|---------|---------|---5---5|-----5---|---5--|
-----------|----------|---------|---------|---5---5-|-8---8--|---8-----|-8----|
-5h7-5---7-|5h7-------|---------|-------5-|-7---7---|--------|---------|------|
-----------|----5---5\|---2-2---|-2/------|---------|--------|---------|------|
-----------|----------|---------|---------|---------|--------|---------|------|
-----------|----------|---------|---------|---------|--------|---------|------|
  Solo:                                                                       

-8---|---------|-5---8---|---------|-----------|---------|---------|----------|
---5-|-----5-8-|---5---5-|---------|-----------|---------|---------|----------|
-----|---------|---------|---7-5-4-|4h5-4------|---5---7-|-5---5---|-------7--|
-----|---------|---------|---------|------5-5/7|-----7---|---7---7-|-7-5-5----|
-----|---------|---------|---------|-----------|---------|---------|----------|
-----|---------|---------|---------|-----------|---------|---------|----------|
                                                                              

-|---------|------------------------------------------------------------------|
-|---------|------------------------------------------------------------------|
-|-7-------|------------------------------------------------------------------|
-|---------|------------------------------------------------------------------|
-|---7-7---|------------------------------------------------------------------|
-|---------|------------------------------------------------------------------|
                                                                              

---5---5-|-----5---|---3-----|---------|---5---5-|-----5---|---3-----|--------|
---0---0-|-----0---|---0-----|---------|---0---0-|-----0---|---0-----|--------|
---5---5-|-----5---|---0---1-|---------|---5---5-|-----5---|---0---0-|--------|
-------0-|-----0---|---x-----|-0-------|-------0-|-----0---|---x-----|-0------|
-0---0-5-|-------0-|-3-------|---------|-0---0-5-|-------0-|-3-------|---3----|
-------3-|---3-----|-----0-0-|---1-1-0-|-------3-|---3-----|-----0-1-|-----1p-|
 Verse 2:                                                                     

----|-------------------------------------------------------------------------|
----|-------------------------------------------------------------------------|
----|-------------------------------------------------------------------------|
----|-------------------------------------------------------------------------|
----|-------------------------------------------------------------------------|
-0--|-------------------------------------------------------------------------|
 (2x)                                                                         

-----5---|---5---x-|---------|-5-------|---------|-3-----x-|---------|-5------|
-----6---|---6---5-|---------|---5-----|-----3---|---3---6-|-----6---|---6----|
-----7---|---7---5-|-----5---|-----5---|-------4-|-------7-|-------7-|-----7--|
-----0---|---0---7-|-------7-|-------7-|---------|-------0-|---------|--------|
---------|---------|---------|---------|---------|---------|---------|--------|
---------|---------|---------|---------|---------|---------|---------|--------|
 Bridge:                                                                      

---|---------|-5-------|---------|-3-------|-3-----3-|---------|---------|----|
---|-----5---|---5-----|-----3---|---3-----|-1-------|-1-------|-----0-x-|----|
---|-------5-|-----5---|-------4-|-----4---|-2-------|-----2---|-----1-x-|----|
---|---------|-------7-|---------|---------|-3-------|---------|-----2-x-|-5--|
---|---------|---------|---------|---------|---------|---------|---2-2-x-|-5--|
---|---------|---------|---------|---------|---------|---------|-0-----x-|-3--|
                                                                              

-------|---------|------------------------------------------------------------|
-------|---------|------------------------------------------------------------|
-------|---------|------------------------------------------------------------|
-5-5-5-|-5-5-5-5-|------------------------------------------------------------|
-5-5-5-|-5-5-5-5-|------------------------------------------------------------|
-3-3-3-|-3-3-3-3-|------------------------------------------------------------|
                                                                              

---5---5-|-----5---|---3-----|---------|---5---5-|-----5---|---3-----|--------|
---0---0-|-----0---|---0-----|---------|---0---0-|-----0---|---0-----|--------|
---5---5-|-----5---|---0---1-|---------|---5---5-|-----5---|---0---0-|--------|
-------0-|-----0---|---x-----|-0-------|-------0-|-----0---|---x-----|-0------|
-0---0-5-|-------0-|-3-------|---------|-0---0-5-|-------0-|-3-------|---3----|
-------3-|---3-----|-----0-0-|---1-1-0-|-------3-|---3-----|-----0-1-|-----1p-|
 Chorus:                                                                      

----|---5---5-|-----5---|---3-----|---------|-1---1---|-1---1---|-0---0---|-3-|
----|---0---0-|-----0---|---0-----|---------|-1---1---|-1---1---|-0---0---|-3-|
----|---5---5-|-----5---|---0---1-|---------|-2---2---|-2---2---|-1---1---|-4-|
----|-------0-|-----0---|---x-----|-0-------|-3---3---|-3---3---|-2---2---|-5-|
----|-0---0-5-|-------0-|-3-------|---------|-3---3---|-3---3---|-2---2---|-5-|
-0--|-------3-|---3-----|-----0-0-|---1-1-0-|-1---1---|-1---1---|-0---0---|-3-|
                                                                              

----3---|---------------------------------------------------------------------|
----3---|---------------------------------------------------------------------|
----4---|---------------------------------------------------------------------|
----5---|---------------------------------------------------------------------|
----5---|---------------------------------------------------------------------|
----3---|---------------------------------------------------------------------|
    (2x)                                                                      

-0-------|-------0-|---------|-0-------|-------0-|---------|---0-----|-0-2----|
-1-------|-----1---|---1-----|---1-----|-0---0---|---0-----|-----0---|-----0--|
-2-------|---------|-----2---|-----2---|-1-------|-----1---|-------1-|--------|
-3-------|---------|-------3-|---------|-2-------|-------2-|---------|--------|
---------|---------|---------|---------|---------|---------|---------|--------|
---------|---------|---------|---------|---------|---------|---------|--------|
 Outro:                                                                       

-0-|-0-------|---0-----|---0-----|-0-2---0-|---------|---0-----|---0-----|-0--|
---|-0-----3-|-----3---|-----3---|-----0---|-------3-|-----3---|-----3---|----|
---|-1---1---|-------1-|-------1-|---------|-----1---|-------1-|-------1-|----|
---|-2-------|---------|---------|---------|---------|---------|---------|----|
---|---------|---------|---------|---------|---------|---------|---------|----|
---|---------|---------|---------|---------|---------|---------|---------|----|
                                                                              

-2---0-|---------|---0-----|---0-----|-0-2---0-|-------0-|-------3-|-----3p0--|
---0---|-------3-|-----3---|-----3---|-----0---|-----1---|---------|-1--------|
-------|-----1---|-------1-|-------1-|---------|---------|-----2---|---2------|
-------|---------|---------|---------|---------|---------|---------|----------|
-------|---------|---------|---------|---------|---------|---------|----------|
-------|---------|---------|---------|---------|---------|---------|----------|
                                                                              

-|-----0---|-0-------|--------------------------------------------------------|
-|-1-------|-3-------|--------------------------------------------------------|
-|---2-----|-1-------|--------------------------------------------------------|
-|---------|-2-------|--------------------------------------------------------|
-|---------|-2-------|--------------------------------------------------------|
-|---------|-0-------|--------------------------------------------------------|

9.PRICELESS

E A D G B E

INTRO

e||----------------------------------------------------------------------------------||
B||----------------------------------------------------------------------------------||
G||--------x-x-----------------------------------------------------------------------||
D||-x-x----x-x-----------------------------------------------------------------------||
A||--------x-x------9--x-----9-9--x------12-10--------9--x-----9-9--x------7-9-10----||
E||-------------5-0-8--x-5-0-8-8--x--8s9--------0-5-0-8--x-5-0-8-8--x--8h9-----------||

e||-----------------------------------------------------------------------||
B||-----------------------------------------------------------------------||
G||-------------------------------------------------------------9---------||
D||---------------------------------------------------------7S8(7)8\7-----||
A||------9--X-----9-9--X------12-10--------9--X-----9-9--X----------------||
E||--5-0-8--X-5-0-8-8--X--8S9--------0-5-0-8--X-5-0-8-8--X----------------||


CHORUS

e||-----------------------------------------------------------------------||
B||-----------------------------------------------------------------------||
G||-----------------------------------------------------------------------||
D||-----------------------------------------------------------------------||
A||------9--x-----9-9--x------12-10--------9--x-----9-9--x------7-9-10----||
E||--5-0-8--x-5-0-8-8--x--8s9--------0-5-0-8--x-5-0-8-8--x--8h9-----------||

e||-----------------------------------------------------------------------||
B||-----------------------------------------------------------------------||
G||-------------------------------------------------------------9---------||
D||---------------------------------------------------------7S8(7)8\7-----||
A||------9--X-----9-9--X------12-10--------9--X-----9-9--X----------------||
E||--5-0-8--X-5-0-8-8--X--8S9--------0-5-0-8--X-5-0-8-8--X----------------||

VERSE

e||-------------------------------------||-------------------------------------||
B||-------------------------------------||-------------------------------------||
G||-------------------------------------||-------------------------------------||
D||-------------------------------------||-------------------------------------||
A||------10--x--------10------0---------||---------10--x-----10-10------0------||
E||--5p0--8--x-5p0-xx--8--3-4---3p0-----||-----5p0--8--x-5p0--8--8--3-4---3p0--||
     *         *          * *   *              *        *     *     * *   *


PRE CHORUS

e||--5-5----5----5----5-5----5----5----5-5----5----5-----8--8-----8-----8-||
B||--6-6----6----6----6-6----6----6----5-5----5----5-----8--8-----8-----8-||
G||--5-5-XX-5-XX-5-XX-5-5-XX-5-XX-5-XX-5-5----5----5-----9--9-XX--9-XX--9-||
D||--7-7-XX-7-XX-7-XX-7-7-XX-7-XX-7-XX-5-5-XX-5-XX-5-XX-10-10-XX-10-XX-10-||
A||--5-5-XX-5-XX-5-XX-5-5-XX-5-XX-5-XX-7-7-XX-7-XX-7-XX--8--8-XX--8-XX--8-||
E||------------------------------------5-5-XX-5-XX-5-XX-------------------||

CHORUS

VERSE

PRE CHORUS

CHORUS

BASS INTERLUDE


BREAKDOWN

e||------------8--------------------5-------------------8--------------------5-----||
B||----------x----8h10p8----------x---7h8p7-----------8----8h10p8----------x----7--||
G||--------5--------------------5----(5)------------5--------------------5------5--||
D||------5--------------------5-------------------5--------------------5-----------||
A||--5h7------------------5h7-----------------5h7------------------5h7-------------||
E||--------------------------------------------------------------------------------||

e||------------8-------------------5--------------------8--------------------5-----||
B||----------x----8h10p8---------x---7----------------8----8h10p9----------x----7--||
G||--------5-------------------5-----5--------------5--------------------5------5--||
D||------5-------------------5--------------------5--------------------5-----------||
A||--5h7-----------------5h7------------------5h7------------------5h7-------------||
E||--------------------------------------------------------------------------------||


SOLO

e||--(TREM)------12----14-15---14-14-14-12-12-12-10-10-10h12------------------------------10------||
B||--8-------------------------------------------------------10----10-10-10p8\7---8p7-8p7---------||
G||-----------------------------------------------------------------------------------------------||
D||-----------------------------------------------------------------------------------------------||
A||-----------------------------------------------------------------------------------------------||
E||-----------------------------------------------------------------------------------------------||

e||--10-10-10-\8-8-8-\7-7-7-\3-3-3--3-3-3--3s5-5--------10p8-------10p8-10p8------10p8-10p8-------||
B||-------------------------------------------------8--------10p8------------10p8-----------10p8--||
G||-----------------------------------------------------------------------------------------------||
D||-----------------------------------------------------------------------------------------------||
A||-----------------------------------------------------------------------------------------------||
E||-----------------------------------------------------------------------------------------------||

e||--10p8------10p8-10p8------10p8-10p8------12p8------10p8-10p8------10p8-10p8------12p8---------||
B||-------10p8-----------10p8-----------10p8------10p8-----------10p8-----------10p8------10p8----||
G||-----------------------------------------------------------------------------------------------||
D||-----------------------------------------------------------------------------------------------||
A||-----------------------------------------------------------------------------------------------||
E||-----------------------------------------------------------------------------------------------||

e||--10p8-10p8------12p8-10p8-----------10p8p7------------10p8p7----------------------------------||
B||------------10p8-----------10p8-10----------10p8p7------------10p8p7---------------------------||
G||---------------------------------------------------8^------------------------------------------||
D||----------------------------------------------------------------------10^----------------------||
A||-----------------------------------------------------------------------------------------------||
E||-----------------------------------------------------------------------------------------------||

e||-----------------------------------------------------------------------------------------------||
B||-----------------------------------------------------------------------------------------------||
G||-----------------------------------------------------------------------------------------------||
D||--s242423232222212120201919181817171616151514141313121211111010998877665544332211-\\\\---------||
A||-----------------------------------------------------------------------------------------------||
E||-----------------------------------------------------------------------------------------------||


BRIDGE

e||-----------------------------------------------------------------------------------------------||
B||-----------------------------------------------------------------------------------------------||
G||---------------------------------------------------------------------------------2-2-----------||
D||--------5-5---5-5-5---X--9S11-11-9---2--------------------0-------9S11-11-9------2-2-----------||
A||--0-0-0-3-3-0-3-3-3---X--7S-9--9-7-\-0-0-0--4-4-4---7-7---0-0-0---7S-9--9-7-\--4-4-4-----------||
E||--------------3-3-3-------------------------2-2-2-S-5-5-S-8--(8)---------------2-2-2-----------||

e||-----------------------------------------------------------------------------------------------||
B||-----------------------------------------------------------------------------------------------||
G||-----------------------------------------------------------------------------------------------||
D||--------5-5---5-5-5---X--9S11-11-9---2--------------------0-------9S11-11-9--------------------||
A||--0-0-0-3-3-0-3-3-3---X--7S-9--9-7-\-0-0-0--4-4-4---7-7---0-0-0---7S-9--9-7-\--4-4-4-4-4-4-4-4-||
E||--------------3-3-3-------------------------2-2-2-S-5-5-S-8--(8)---------------2-2-2-2-2-2-2-2-||

CHORUS

VERSE

10.ZEE DEVEEL

Intro/Verse
E--3-3-------
B--3-3-------
G--4-4------- (8 Times for Intro;8 times for verse)
D--5-5-2--5-6
A--5-5-2--4-4
E-3----0-----

Prechorus
E--4-4--5-5-4-4--5-5-2
B--5-5--5-5-5-5--5-5-2
G--6-6--6-6-6-6--6-6-3
D--6-6--7-7-6-6--7-7-4
A-4----0---4----0-----
E---------------------

Chorus
E---------------------------------
B---------------------------------
G----------8-8-8-8---------------- (4 times)
D-2-2-2-2--8-8-8-8--7-7-7-7--2-6-6
A-2-2-2-2--6-6-6-6--7-7-7-7--2-6-6
E-0-0-0-0-----------5-5-5-5--0-4-4

Verse repeat 8 times

Solo

E---0-14�-14/15-14-12--14�-14/15-14-12-------------|
B--------------------------------------15-14-12/14-12-14/15-14---|
G----------------------------------------------------------------|
D----------------------------------------------------------------|
A----------------------------------------------------------------|
E----------------------------------------------------------------|

E--12-14/15-14-12/20-12-12-11/19-11/12-18--11/18-11/18-11--11/18/11-|
B-------------------------------------------------------------------|
G-------------------------------------------------------------------|
D-------------------------------------------------------------------|
A-------------------------------------------------------------------|
E-------------------------- ----------------------------------------|

E-12-11-11/17-17-12/11/17-13-13-13/14/13-9/10---------------------|
B-----------------------------------------------------------------|
G-----------------------------------------------------------------|
D-----------------------------------------------------------------|
A-----------------------------------------------------------------|
E-----------------------------------------------------------------|

Mike then does something w/ his effect pedals which is only palm muting strumming 

Intro Repeat (12 times)

Chorus Repeat (4 times)

E-------------|
B-------------|
G-------------|
D-2-6-2--2-6-2|
A-2-6-2--2-6-2|
E-0-4-0--0-4-0|

11.MADE FOR TV MOVIE

Intro/Verse - slight dirty tone
e-------------------------------------------|
b-------------------------------------------|
g-----0-----4---0--------0-----4------------|x6
d---2---2-----5--------2---2-----5----------|
a-3---------------6---3---------------5-----|
E-----------------------------------6-------|

Chorus - heavy distortion
e------------------------------------------------------------|
b------------------------------------------------------------|
g-----------------------------------5-5-5-5-5-5-5-5--7-------| x2
d-5-5-5-5-5-5-5-5--2-2-2-2-2-2-2-2--5-5-5-5-5-5-5-5--7--8-8--|
a-5-5-5-5-5-5-5-5--2-2-2-2-2-2-2-2--3-3-3-3-3-3-3-3--5--8-8--|
E-3-3-3-3-3-3-3-3--0-0-0-0-0-0-0-0----------------------6-6--|

Solo - distortion and phase
e--------12--------------10-------------12-----------------------------------|
b-10/12~----12-10-10/12~----8-10-10/12~----12-10-8-10-8-10-7-8-5-7-3-5-3-5---|
g----------------------------------------------------------------------------|
d----------------------------------------------------------------------------|
a----------------------------------------------------------------------------|
E----------------------------------------------------------------------------|

slight dirty tone
e------------------------------------------|
b------------------------------------------|
g-----0-----4---0----------0-----4---------|x4
d---2---2-----5----------2---2-----5-------|
a-3---------------6---3---------------5----|
E-----------------------------------6------|

heavy distortion
e------------------------------------------------------------|
b------------------------------------------------------------|
g-----------------------------------5-5-5-5-5-5-5-5--7-------| x2
d-5-5-5-5-5-5-5-5--2-2-2-2-2-2-2-2--5-5-5-5-5-5-5-5--7--8-8--|
a-5-5-5-5-5-5-5-5--2-2-2-2-2-2-2-2--3-3-3-3-3-3-3-3--5--8-8--|
E-3-3-3-3-3-3-3-3--0-0-0-0-0-0-0-0----------------------6-6--|

e------------------------------------------------------------|
b------------------------------------------------------------|
g-----------------------------------5-5-5-5-5-5-5-5--7-------| 
d-5-5-5-5-5-5-5-5--2-2-2-2-2-2-2-2--5-5-5-5-5-5-5-5--7--8-8--|
a-5-5-5-5-5-5-5-5--2-2-2-2-2-2-2-2--3-3-3-3-3-3-3-3--5--8-8--|
E-3-3-3-3-3-3-3-3--0-0-0-0-0-0-0-0----------------------6-6--|
  x x x x x x x x  x x x x x x x x  x x x x x x x x  x  x x

e------------------------------------------------------------|
b------------------------------------------------------------|
g-----------------------------------5-5-5-5-5-5-5-5--7-------| 
d-5-5-5-5-5-5-5-5--2-2-2-2-2-2-2-2--5-5-5-5-5-5-5-5--7--8-8--|
a-5-5-5-5-5-5-5-5--2-2-2-2-2-2-2-2--3-3-3-3-3-3-3-3--5--8-8--|
E-3-3-3-3-3-3-3-3--0-0-0-0-0-0-0-0----------------------6-6--|

Bridge - distortion
e------------------------------------------------------------|
b------------------------------------------------------------|
g------------------------------------------------------------|
d-----------------------------------------5-5-5--------------|
a-3^r-1-------1---1---3^r-1-------1---1---4-4-4--------------|
E-------3-1-3---3-----------3-1-3---3-----5-5-5--------------|

finally, play the chorus riff in a semi-clean tone, play chords loosly with some palm muting
e------------------------------------------------------------|
b------------------------------------------------------------|
g-----------------------------------5-5-5-5-5-5-5-5--7-------| 
d-5-5-5-5-5-5-5-5--2-2-2-2-2-2-2-2--5-5-5-5-5-5-5-5--7--8-8--|
a-5-5-5-5-5-5-5-5--2-2-2-2-2-2-2-2--3-3-3-3-3-3-3-3--5--8-8--|
E-3-3-3-3-3-3-3-3--0-0-0-0-0-0-0-0----------------------6-6--|

12.SMILE LINES

Standard Tuning EADGBE

Strum this maybe a phaser on it, can't tell bass too loud

-------------------------|
-------------------------|
-----7-------------------|
-----7-------------------|
-----5-------------------|
-------------------------|

Intro
Use a ring mod if you have one for this next effect, I use my flanger/chorus pedal to make the same 

sound.

------------------------------------------------------|
------------------------------------------------------|
------------------------------------------------------|
--------------------0-0-------------------------------|
--0-0---------0-0---------0-0---------0-0-----4-4-----|
------0-2-0-0----0-2----0-----0-2-0-0-----0-2-----0---|

Verse
Sounds pretty clean

----------------------------------------------|
-------0--------7h8p7----0--7h8-7h8-7h8p7-----|
----5----5----5--------5--5-------------------|
--7---7------7--------7-7---------------------|
----------------------------------------------|
----------------------------------------------|

End of verse
Strum the last chord 

--------------------------------------|
-----0----7---------------------------|
---5--5---5---------------------------|
--7-7-----7---------------------------| 
--------------------------------------|
--------------------------------------|

chorus Strum each chord a number of times, you'll get the idea when you listen to the song
The last couple of chords played more than the others.
Distortion

------------------------------------------------------------------|
------------------------------------------------------------------|
--5------4---6------5-------4---6-------5------4---6---2-------7--|
--5------5---7------5-------5---7-------5------5---7---3-------7--|
--3------5---7------3-------5---7-------3------5---7---3-------5--|
---------3---5--------------3---5--------------3---5---1----------|


Bridge again strum each chord for a while
Distortion

-------------------------|
-------------------------|
--5--------------7-------|
--5----6----3----7-------|
--3----6----3----5-------|
-------4----1------------|

solo
Distortion and Phaser should do it
--------------------------------------------------------|
--------------------------------------5-3---------------|
-------------7-5-5-7-8-7-5-7-7-5-5---5------------------|
---7p5-5-5h7--------------------7-7-7-------------------|
--------------------------------------------------------|
--------------------------------------------------------|

--11-11p10---10---10-11p10--8-------------------17------17171717-|
-----------13--13----------9-10-8-10-10-8-10-10---17-16-17171717-|
-----------------------------------------------------------------|
-----------------------------------------------------------------|
-----------------------------------------------------------------|
-----------------------------------------------------------------|

Pluck the strings above the nut every so often and play the bridge chords cleanly

-------------------------|
-------------------------|
--5--------------7-------|
--5----6----3----7-------|
--3----6----3----5-------|
-------4----1------------|

13.HERE IN MY ROOM

intro/veres/chorus

|------------------3333-------------------|
|-----------1------4444-------------------|
|---0--1--0--------5555-------------------|
|-2--2--2----------6666-------------------|
|3----------------------------------------|
|-----------------------------------------|

pre chorus

-------------9-------|
----------9----------|
-------6-8-10--------|
----1-3--------------|
---4-----------------|
--2------------------|

solo 

------------------------16-15-----|
--14-13-11-13------13-------------|
-------------12-10---15-----------|
----------------------------------|
----------------------------------|
----------------------------------|

14.LEECH

Verse
e|------9------|
B|-------------|
G|---7---------|
D|--9-9--------|
A|-------------|
E|-------------|

Chorus
e|--------------------------------------------------------|
B|--------------------------------------------------------|
G|----0------0------0-0-0----0------0---------------------|
D|---6-6-6--6-6-6--6-6-6-6--6-6-6--6-6-6----6-6-77777777--|
A|---------7---7------------------7---7---------77777777--|
E|--9---9---------5--------9---9---------5-5-5--55555555--|

"The ride's over..."
e|--------------------------------------------|
B|--------------------------------------0-----|
G|------------------------------------3--3----|
D|--------2-------2--14-14/9--------2-2----2--|
A|--------1-------1--13-13/7--------1-1----1--|
E|--2-0-2---2-0-2----14-14/0--2-0-2---2----2--|
                                     
e|--------------------------------------------|
B|--------------------------------------------|
G|-----------------------------------------6--|
D|--------2-------2--14-14/9--------2------5--|
A|--------1-------1--13-13/7--------1---------|
E|--2-0-2---2-0-2----14-14/0--2-0-2--2-0------|

Heavy riff
e|----------------------------0--xxxxx--------|
B|-------------------------------xxxxx--------|
G|-----------5b-------4----------xxxxx--------|
D|-----------4b--------4---------xxxxx--------|
A|--4-4-4-4----4-4-4-----4-4-----xxxxx--------|
E|--2-0-2-0----0-2-0-----2-0-----xxxxx--------|

There you go!Tell me if you like it!!
Comments