Incubus - A Crow Left Of The Murder Chords & Tabs

 

A Crow Left Of The Murder Chords & Tabs

Incubus Chords & Tabs

Version: 2 Type: Tab 2 ratings
1 star 2 stars 3 stars 4 stars 5 stars
comments

A Crow Left Of The Murder Tab

   
Incubus
"A Crow Left of the Murder"
from album with same name
tab by ekolbatx

ekolb@gbronline.com for corrections/comments

one of the tightest songs on their new record, which is overall awesome!
A little tricky/fast, but after awhile it will become easier.

Riff A  (0:00)
e---------------------------------------------------------------------------|
B---------------------------------------------------------------------------|
G---------------------------------------------------------------------------|
D--------------11~----------------------------------------------------------|
A------11--13---------13--11--13\----------------4--------------------------|
E---------------------------------------2--4--6-----6--4--6/----------------|

e---------------------------------------------------------------------------|
B---------------------------------------------------------------------------|
G---------------------------------------------------------------------------|
D--------------11~----------------------------------------------------------|
A------11--13---------13--11--13\----------------4--------------------------|
E---------------------------------------2--4--6-----6--4--6/----------------|

e---------------------------------------------------------------------------|
B---------------------------------------------------------------------------|
G---------------------------------------------------------------------------|
D--------------13~----------------------------------------------------------|
A------11--13---------13--11--13\----------------4--------------------------|
E---------------------------------------2--4--6-----6--4--6/----------------|

e---------------------------------------------------------------------------|
B---------------------------------------------------------------------------|
G---------------------------------------------------------------------------|
D--------------11~--------------------------4---4---4-2---------------------|
A------11--13---------13--11--13\-----------4---4---4-2---------------------|
E-------------------------------------------2---2---2-0---------------------|

Play riff A thru verses
[ Tab from: http://www.guitartabs.cc/tabs/i/incubus/a_crow_left_of_the_murder_tab_ver_2.html ]
Riff B  (0:42)
..from here on it's instinctual..
e---------------------------------------------------------------------------|
B---------------------------------------------------------------------------|
G------------------7--7-7----4--4-4-----------------------------------------|
D----7--7--7--7----7--7-7----4--4-4-----------------------------------------|
A----7--7--7--7----5--5-5----2--2-2-----------------------------------------|
E----5--5--5--5-------------------------------------------------------------|

Breakdown thingy (1:36)
e---------------------------------------------------------------------------|
B---------------------------------------------------------------------------|
G----4~--------------------4-/-7~--------9-\-4------2-4-2---7-4-------------|
D----4~--------------------4-/-7~-------------------2-4-2---7-4-------------|
A----2~--------------------2-/-5~-------------------0-2-0---5-2-------------|
E---------------------------------------------------------------------------|

Riff C (2:18) 
e---------------------------------------------------------------------------|
B---------------------------------------------------------------------------|
G----4---4-4--4-4--4444--4---/----7---7-7--7-7---7--7-77------minor---------|
D----4---4-4--4-4--4444--4---/----7---7-7--7-7---7--7-77----variations------|
A----2---2-2--2-2--2222--2---/----5---5-5--5-5---5--5-55-----on this--------|
E---------------------------------------------------------------------------|

Riff D (2:34)
e---------------------------------------------------------------------------|
B---------------------------------------------------------------------------|
G----12---12--12-12-12---12---12--12-12-12--9--9-9-9-9-9-9------------------|
D----12---12--12-12-12---12---12--12-12-12--9--9-9-9-9-9-9------------------|
A----10---10--10-10-10---10---10--10-10-10--7--7-7-7-7-7-7------------------|
E---------------------------------------------------------------------------|

Riff E (3:11)
..do you get it yet? Do you get it yet?..
e---------------------------------------------------------------------------|
B---------------------------------------------------------------------------|
G---------------------------------------------------------------------------|
D---------13-------------13---------------13---------------13---------------|
A----9h11-----------9h11-------------9h11-------------9h11------------------|
E---------------------------------------------------------------------------|

Riff F
e---------------------------------------------------------------------------|
B---------------------------------------------------------------------------|
G---------------------------------------------------------------------------|
D---------13-------------13---------------13-----------4--4-4--2~-----------|
A----9h11-----------9h11-------------9h11--------------4--4-4--2~-----------|
E------------------------------------------------------2--2-2--0------------|


Riff A x 3
Riff B x 4
Riff A x 2
Riff B x 8
Breakdown x 4
Riff C x 3
Riff D x 1
Riff A x 3
Riff E x 3
Riff F x 1
Comments