Incubus - A Crow Left Of The Murder Chords & Tabs

 

A Crow Left Of The Murder Chords & Tabs

Incubus Chords & Tabs

Version: 1 Type: Tab 0 ratings
1 star 2 stars 3 stars 4 stars 5 stars
comments

A Crow Left Of The Murder Tab

This Song Has Some Amazing Guitar Work By Mike In It.
Im Not Going To Take The Time To Tab Out Exactly How It Goes,
But Heres A Good Start For Yall.

Song: A Crow left Of The Murder
Album: A Crow left Of The Murder
Artist: Incubus

VERSE
----------------------------------------------------
----------------------------------------------------
----------------------------------------------------
--------9---------------9---------(x2)--------------
---9-11--11-9-11---9h11---11-9-11-------------------
--(0)-------------0---------------------------------
[ Tab from: http://www.guitartabs.cc/tabs/i/incubus/a_crow_left_of_the_murder_tab.html ]
-----------------------------------------------------
-----------------------------------------------------
-----------------------------------------------------
--------13-------------------9-----------------------(x1)(enire line)
---9-11----11-9-11------9h11---11-9-11----9-9-9------
--(0)-----------------0--------------------------12--

CHROUS

----------------------------
----------------------------
--4--------11--------8------
--5--------12--------9------   (Youll Figure Out The Strumming, Just Listen)
--5--------12--------9------
--3--------10--------7------

INTERLUDE
------------------------------------------------------
------------------------------------------------------
-4----7----9---4----4---2---4---5----4---5---4-------- (Here Again, Listen For Strumming Patterns)
---s----s---------------------s-----------------------
-2----5----7---2----2---0---2---3----2---3---2--------
------------------------------------------------------

Thats About It. That Should Be A Good Start To Playing This Song. Enjoy!
Comments