Incubus - A Certain Shade Of Green Chords & Tabs

 

A Certain Shade Of Green Chords & Tabs

Incubus Chords & Tabs

Version: 2 Type: Tab 0 ratings
1 star 2 stars 3 stars 4 stars 5 stars
comments

A Certain Shade Of Green Tab

Standard tuning

Intro (distortion)X1
|----------------------------------------------------------|
|----------------------------------------------------------|
|-7777-7777-8888-7777-7777-7-10-8-4444-4444-33-33-33-33----|
|-7777-7777-8888-7777-7777-7-10-8-4444-4444-33-33-33-33----|
|-5555-5555-6666-5555-5555-5-8--6-2222-2222-11-11-11-11----|
|-5555-5555-6666-5555-5555-5-8--6-2222-2222-11-11-11-11----|

Intro pt.2 (distortion)X2
|----------------------------------------------------------|
|----------------------------------------------------------|
|-7777-7777-8888-7777-7777-7-10-8-4444-4444-33-33-33-33----|
|-7777-7777-8888-7777-7777-7-10-8-4444-4444-33-33-33-33----|
|-5555-5555-6666-5555-5555-5-8--6-2222-2222-11-11-11-11----|
|-5555-5555-6666-5555-5555-5-8--6-2222-2222-11-11-11-11----|

Verse (distortion)X8
|---------|
|---------|
|---------|
|-----4---|
|-----4-5-|
|-0-2---3-|

Chorus (distortion)X2
|----------------------------------------------------------|
|----------------------------------------------------------|
|-7777-7777-8888-7777-7777-7-10-8-4444-4444-33-33-33-33----|
|-7777-7777-8888-7777-7777-7-10-8-4444-4444-33-33-33-33----|
|-5555-5555-6666-5555-5555-5-8--6-2222-2222-11-11-11-11----|
|-5555-5555-6666-5555-5555-5-8--6-2222-2222-11-11-11-11----|

-Verse X8
-Chorus X2
[ Tab from: http://www.guitartabs.cc/tabs/i/incubus/a_certain_shade_of_green_tab_ver_2.html ]
Bridge pt.1
E|-------------------------------------|
B|--17-x-17-x-17-171717-17-x-17171717--|
G|--16-x-16-x-16-161616-16-x-16161616--|
D|--17-x-17-x-17-171717-17-x-17171717--|
A|-------------------------------------|
E|-------------------------------------|

Bridge pt.2 X4
E|---------------------------------------------|
B|---------171717--------17/1818---------------|
G|---------------------------------------------|
D|--141414--------141414---------141414-14-15--|
A|---------------------------------------------|
E|---------------------------------------------|

Bridge pt.3
|----------------------------------------------------------|
|----------------------------------------------------------|
|-88-88-88-88----------------------------------------------|
|-88-88-88-88----------------------------------------------|
|-66-66-66-66----------------------------------------------|
|-66-66-66-66----------------------------------------------|

Middle (clean)X1
|----------------------------------------------------------|
|----------------------------------------------------------|
|-7777-7777-8888-7777-7777-7-10-8-4444-4444-33-33-33-33----|
|-7777-7777-8888-7777-7777-7-10-8-4444-4444-33-33-33-33----|
|-5555-5555-6666-5555-5555-5-8--6-2222-2222-11-11-11-11----|
|-5555-5555-6666-5555-5555-5-8--6-2222-2222-11-11-11-11----|

Order:

Intro (distrotion) X1
Intro pt.2 (distortion) X2
Verse (distortion) X8
Chorus (distortion) X2
Verse (distortion) X2
Chorus (distortion) X2
Bridge pt.1 (distortion) X1
Bridge pt.2 (distortion) X4
Bridge pt.3 (distortion) X1
Middle (Clean)(except for the 1133-- ones they have distotion on them) X1
Chorus (distortion) X2
Comments