Incubus - A Certain Shade Of Green Chords & Tabs

 

A Certain Shade Of Green Chords & Tabs

Incubus Chords & Tabs

Version: 2 Type: Bass Tab 0 ratings
1 star 2 stars 3 stars 4 stars 5 stars
comments

A Certain Shade Of Green Bass Tab

   
Incubus - A Certain Shade of Green
from the album S.C.I.E.N.C.E.
L=left hand slap s=thumb slap p=pop
Standard G,D,A,E tuning.  
  Intro is guitar w/ distortion.  Then bass comes in:
Intro:
G|-----------------------------|
D|-----------------------------|
A|-5-5-5----5-5-5-5-5--6-6-6---|
E|-----------------------------|
cont.
G|-----------------------------------------------------------|
D|-----------------------------------------------------------|
A|-5-5-5-----5-5-8-8-6-6-5-5--2-2-2--2-2-2-2-2--2-2-2-1-1-1-1|repeat as needed
E|-----------------------------------------------------------|
Verse:
G|-----------------10------10------10---|
D|--------------------------------------|
A|-----3--------------------------------|
E|-0-3---0---00x0xx--00x0xx--00x0xx-----|repeat as needed  
             ssLsLs PssLsLs PssLsLs P
chorus:
G|-----------------------------|
D|-----------------------------|
A|-5-5-5-5---5-5-5-5---6-6-6-6-|
E|-----------------------------|
cont.
G|-------------------------------------------------|
D|-------------------------------------------------|
A|-5-5-5-5---5-5-8-6-5-2-2-2-2---2-2-2-2---2-2-1-1-|repeat as needed
E|-------------------------------------------------|
Bridge:
G|----------------------------------|
D|----------------------76----------| 
A|4/8-7---7-7--5-5-----------3-3----|repeat as needed 
E|-----00-----0----3-4--------------| 
Outro:
G|---------------------------------------|
D|---------------------------------------|
A|1-1--1-1--1-1--1-1--1-1--1-1--1-1--1-1-|
E|---------------------------------------|

G|---------------------------------------|
D|1-1--1-1--1-1--1-1--1-1--1-1--1-1--1-1-|
A|---------------------------------------|
E|---------------------------------------|

G|---------------------------------------|
D|---------------------------------------|
A|1-1--1-1--1-1--1-1--1-1--1-1--1-1--1-1-|
E|---------------------------------------|
originally tabbed by jake fixed by Jimbo email me at freak666@mailexcite.com

[ Tab from: http://www.guitartabs.cc/tabs/i/incubus/a_certain_shade_of_green_btab_ver_2.html ]
Comments