Incubus - 11am Chords & Tabs

 

11am Chords & Tabs

Incubus Chords & Tabs

Version: 1 Type: Chords 0 ratings
1 star 2 stars 3 stars 4 stars 5 stars
comments

11am Chords

   
#----------------------------------PLEASE NOTE---------------------------------#
#This file is the author's own work and represents their interpretation of the #
#song. You may only use this file for private study, scholarship, or research. #
#------------------------------------------------------------------------------##

Chords used  are:
 EG/CA/D
  .e ----------------e-----------------e-----------------
B-----------------B----------------B-----------------
G------4----------G----------------G-----------------
D------2----------D-----2---------D-----4-----------
A------2---------- A-----3---------A-----5-----------
E------0-----------E-----3-----------E-----5-----------

F (Power Chord)  G (Power Chord)A (Power Chord)

[ Tab from: http://www.guitartabs.cc/tabs/i/incubus/11am_crd.html ]
.e------------------------------------------------------------------------------------------
B------------------------------------------------------------------------------------------
G-------------------4----4---4------------------------------------------------------
D-------------------2----2---2-------------------2p0---------0----------------------
A-------------------2----2---2----------3---------------3----------------------------
E----0--0--0-------0----0---0-------3-----3--------------------------------------------
Pm-----------pm------------------------------------------------
Do this three times

The 4th time do this
.e------------------------------------------------------------------------------------------
B------------------------------------------------------------------------------------------
G-------------------4---4--4--------------------------------------------------------
D-------------------2---2--2---------------4---------0h2p0---------0---------------
A-------------------2---2--2----------5-------------------------3---------------------
E------0--0--0-----0---0--0------5-------------5---------------------------------------
Pm-------------               pm-----------------------------------------------------

The rest of the song is chords listen to it for the strumming
Comments