Incubus - 11 Am Chords & Tabs

 

11 Am Chords & Tabs

Incubus Chords & Tabs

Version: 7 Type: Tab 0 ratings
1 star 2 stars 3 stars 4 stars 5 stars
comments

11 Am Tab

Hey Guys this is a good song and i know that this is the right tab because i got it out of 
the offical Morning view book.
Tuning- Standard

Intro 1A
|------------------------------------------------------
|-----0---00-------------------------------------------
|-----4---44-------------------------------------------
|-----2---22----------2P0-----0------------------------
|-----2---22----3-----3--------------------------------
|0--x---------3---3--------3---------------------------

INTRO 1B
|------------------------------------------------------
|-----0----00------------------------------------------  X2
|-----4----44------------------------------------------
|-----2----22------------2p0------0--------------------
|-----2----22-----3------------------------------------
|0--x----------3-----3--------3------------------------
INTRO 1C

|------------------------------------------------------
|---------0--------------------------------------------
|---------4--0-----------------------------------------
|----x--x--------------6---4-------0---2p0-------0-----
|---------------0--5-------------------------3---------
|0------------------------------3----------------------


Intro 2/ Chorus

|----------------------------------------------------------
|-----0--00---------------------------0--------------------
|-----4--44---------------------------4--------------------
|-----2--22---------2p0------0--------2--------4--0--2p0--0
|-----2--22---3--3--3-----------------2------5-----------3-
|0-xx---------3--3--3----3------0-xx----xx-5-----3---------
[ Tab from: http://www.guitartabs.cc/tabs/i/incubus/11_am_tab_ver_7.html ]
|--------------------------------------000-----------------
|------0--00---------------------------000-----------------
|------4--44----------------------2-22-222-----------------
|------2--22-------2p0------0-----2-22-222--------0-2p0---0
|------2--22-3--3--3--------------0-00-000----3---------3--
|0-xx--------3--3--3----3-------------------3---3----------



VERSE
|--------------------------------------------------------
|------0-00-----------------------0-00-------------------
|------4-44-----------------------4-44-------------------X4
|------2-22-------2p0----0--------2-22-------2p0---0-----
|------2-22---3-3-3---------------2-22--3-3--3-----------
|0-xx--------3-3-3---3------0-xx--------3-3--3---3-------



Prechorus

|----------------------------------------------------------
|---------------0----------0-------------0-----------------
|--------4--------4---4-------------4------4---4-----------
|---2------2--------2---2-------2----2------2---2----------
|0----0------0-------0---0----3---3---3------3---3---------
|----------------------------------------------------------

|-0000000--------------------------------------------------
|-0000000--0000000--0000000--------------------------------
|-2222222--4444444--2222222-------------------------------
|-4444444--5555555--3333333--------------------------------
|-0000000--5555555--3333333--------------------------------
|----------3333333--1111111--------------------------------


-Chorus
-Verse
-Prechorus
-Chorus

BRIDGE

|----------------------------------------------------------
|----------------------------------------------------------
|-444-----2-2-x--------------------------------------------
|-000-----0-0-x-X8-----------------------------------------
|-555-----3-3-x--------------------------------------------
|-333--x--1-1-x--------------------------------------------


Chorus X4



END ON


|-0-|
|-0-|
|-4-|
|-2-|
|-2-|
|-0-|
Comments