Incubus - 11 Am Chords & Tabs

 

11 Am Chords & Tabs

Incubus Chords & Tabs

Version: 6 Type: Tab 0 ratings
1 star 2 stars 3 stars 4 stars 5 stars
comments

11 Am Tab

Incubus
11 A.M.

Tabbed by Andres (la_laker83@hotmail.com)


Really Cool Song! And not so hard to play


Riff 1 (most used throughout the song)
The xx's are played just occasionally, not always
E-------------------------------------
B-------------------------------------
G-----------4-4-4---------------------
D------x-x--2-2-2----------2p0---0----
A------x-x-------------3-------3------
E--0-----------------3---3------------

Riff 2
E----------------------------------------
B----------------------------------------
G-----------4----------------------------
D------x-x--2---------4---0--h4p0---0----
A------x-x----------5---5---------3------
E--0--------------3----------------------

Riff 3
E-----------------------------
B-----------------------------
G-----4-4---------------------
D-----2-2----2---4-2p0---0----
A--0---------3---------3------
E-----------------------------

Riff 4
E----------------------------
B----------------------------
G----------------------------
D-----4-----4--4-2p0---0-----
A--5--5---3----------3-------
E----------------------------
[ Tab from: http://www.guitartabs.cc/tabs/i/incubus/11_am_tab_ver_6.html ]
Riff 5
E-----------------------------------------------------------
B-----------------------------------------------------------
G-------4---4--4-----4-----4--------4---4--4-----4-----4----
D-----2---2------2-----2----------2---2------2-----2--------
A--0---------------0-----0-----3---------------3-----3------
E-----------------------------------------------------------

Riff 5a
E--0-------
B---0------
G----4-----
D-----2----
A----------
E----------

Riff 6 (Strum these chords)
E-------------
B-------------
G--4--4--2----
D--2--2--3----
A--0--x--x----
E-----3--1----

Riff 7
E-------------
B-------------
G----4---2----
D----5---3----
A--------x----
E--3-----1----

Riff 7a
E--------0---------------0-----0-----
B--0---------0-----0--3----3----3----
G---1----------1---1--1--------------
D----2-------------2--2--------------
A-----2------------------------------
E------0-----------------------------
 

INTRO
Riff 1  3x
Riff 2

CHORUS (Also second part of the Intro)
Riff 1
Riff 2
Riff 1
Riff 3

VERSE
Riff 1  3x
Riff 4

1st BRIDGE (lyrics: "Forgive my indecision...")
Riff 5
Riff 5a
Riff 6

2nd BRIDGE
Riff 5  2x
Riff 6

Last VERSE (After 2nd Chorus)
Riff 7  (As many times as necessary)
Riff 7a

ENDING (End of last Chorus)
Strum first 2 chords
E---------------
B----------5----
G--4--4---4-----
D--2--2--2------
A--0--3---------
E---------------

There, hope you enjoy it!
Any questions to la_laker83@hotmail.com
Comments