Incognito - Where Did We Go Wrong Chords & Tabs

 

Where Did We Go Wrong Chords & Tabs

Incognito Chords & Tabs

Version: 1 Type: Bass Tab 0 ratings
1 star 2 stars 3 stars 4 stars 5 stars
comments

Where Did We Go Wrong Bass Tab

Intro(Strings for 4 bars)

G:|----------------------|---------------------------|
D:|----------------------|----------7----------------|
A:|-------------12-------|------------8-10-10------8-|
E:|-10-10-13-13----8-10-6|-8-8----------------8h10---|

G:|----------------------|---------------------------||
D:|----------------------|---------------------------||
A:|-------------12-------|----------------12---------||
E:|-10-10-13-13----8-10-6|-8-8------1-3-5------------||

Verse

G:|-----------------|-----------------|-----------------|
D:|-----------------|-----------------|-----------------|
A:|-5-5-------------|-----------------|-----------------|
E:|----------------5|-6-6------------5|-3-3-------------|

G:|-----------------|-----------------|-----------------|
D:|-----------------|-----------------|-----------------|
A:|---------0--0----|-5-5-------------|-----------------|
E:|-3------------3-0|--------------8-7|-6-6----------0-1|

G:|-----------------|-----------------||
D:|-----------------|-----------------||
A:|-----------------|-----------0-----||
E:|-3-3-------------|-3-3---3-3-------||

Bridge
[ Tab from: http://www.guitartabs.cc/tabs/i/incognito/where_did_we_go_wrong_btab.html ]
G:|-----------------|-----------------|-----------------|
D:|-----------------|-----------------|------------5/7-|
A:|-----------------|-5-5--5----------|-----------------|
E:|-6-6--6-------6h8|------------x-3-5|-6-6--6----------|

G:|-----------------|-----------------|-----------------|
D:|-----------------|-----------------|-----------------|
A:|-5-5-x5-------3h5|-----------------|-----1-2---------|
E:|----------x3/5---|-6-6--6----------|-2-4--------2-5--|

G:|-----------------||
D:|----------x7h9-7-||
A:|-----------------||
E:|-----------------||

Chorus

G:|-------7-9-------|--------9-11-----|-----------------|
D:|-----------------|-----------------|-----------------|
A:|55--55-----------|-99--99----------|-----------------|
E:|------------10h12|-----------------|-66--66---35-6-3-|

G:|-----------------||
D:|--------7/97----||
A:|--------------7--||
E:|55--55-5--------5||

M8
   Last bar of intro...
G:|-----------------||-----------------|-----------------|
D:|-----------------||-----------------|-----------------|
A:|-----------------||-----------------|-----------------|
E:|--------3--5--876||-55----55---5----|-55----55---5----|

		     first time...
G:|-----------------|-----------------||
D:|----------------5|-----------------||x2
A:|-----------x5-7--|-----------------||
E:|-55----55--------|-55----55---5----||

  second time...
G:|----------------7---||
D:|------------7/9--9-7||
A:|--------------------||
E:|-55----55--5--------||
Comments