Incognito - I Can See The Future Chords & Tabs

 

I Can See The Future Chords & Tabs

Incognito Chords & Tabs

Version: 1 Type: Bass Tab 0 ratings
1 star 2 stars 3 stars 4 stars 5 stars
comments

I Can See The Future Bass Tab

Riff 1

G:|----(5)----------|-----------------|-----------------|
D:|--(5)------------|---------(/5-5)5h|7----------------|
A:|-3------5--------|-3---------------|-----------------|
E:|-----------------|-----------------|--5--------------|

G:|-----------------|-----------------|----------(10)---|
D:|-----------------|-----------------|-----(8)---------|
A:|-6---------------|-3------5--------|-6---------------|
E:|-----------------|-----------------|-----------------|

G:|-----------------|-----------------||
D:|-----------------|---------(2-3-45)|| repeat w/ad-lib.
A:|-3------------(3/|15)--------------||  until change
E:|-----------------|------------(12)||
[ Tab from: http://www.guitartabs.cc/tabs/i/incognito/i_can_see_the_future_btab.html ]
The chromatic run from E to G in the last bar are played leading
in to riff 2.

Riff 2

G:|-----------------|-----------5po2h3|-----------------|
D:|------55-3-------|-----------------|------55-3-------|
A:|-----------------|----x1-x3--------|-----------------|
E:|-3---3--------0-1|-3---------------|-3---3-----------|

G:|--8-8------6-6---|-----------------|-----------------|
D:|-8---8----6---6--|------55-3-------|-----------------|
A:|6-----6--4-----4-|-----------------|----x1-x3--------|
E:|-----------------|-3---3--------0-1|-3---------------|

G:|-----------------|-------5----3----||
D:|------55-3-------|-------5---(3)---|| repeat w/ad-lib.
A:|--------------0-1|-3-3--(3)---1----||  until change
E:|-3---3-----------|-----------------||
Comments