In Perfect Silence - You Dont Need Me Chords & Tabs

 

You Dont Need Me Chords & Tabs

In Perfect Silence Chords & Tabs

Version: 1 Type: Tab 0 ratings
1 star 2 stars 3 stars 4 stars 5 stars
comments

You Dont Need Me Tab

   
IPS,You Don't Need Me.
Tabbed by Nick Ainsworth,nicholas@musician.net.
  
Song: You Don't Need Me
Band: IPS (In Perfect Silence)
Album: Waste of Time
Author: Nick (nicholas@musician.net)
I can't find this tab anywhere so I did it myself.  
It sounds perfect w/ the cd so here ya go, enjoy!
-Nick 

Gt1 - Guitar 1
Gt2 - Guitar 2

Intro
Gt2
e-------------------------------------------
B-------------------------------------------
G------------------------------------------- 
D-------------------------------------------
A-66666666666666...-------------------------
E-------------------------------------------

Main Riff
Gt1
e-------------------------------------------
B-------------------------------------------
G------------------------------------------- x2 
D----5----------5---------------------------
A-666-6--565--33-6--565---------------------
E------66---------44------------------------
[ Tab from: http://www.guitartabs.cc/tabs/i/in_perfect_silence/you_dont_need_me_tab.html ]
Bridge
Gt1 + Gt2
e-------------------------------------------
B-------------------------------------------
G------------------------------------------- x2 
D-(6)xxx-6-66xxxxxx-------------------------
A-(6)xxx-6-66xxxxxx-------------------------
E-(4)xxx-4-44xxxxxx-------------------------

Verse 1
Gt 1
e-------------------------------------------
B-------------------------------------------
G------------------------------------------- x2
D----56---56----56---565--------------------
A-666--------333----------------------------
E------666--------444-----------------------

Chorus
Gt1 + Gt2
e---------------------------------------------
B---------------------------------------------
G--------------------------------------------- 
D-xx5xx5xx5xx5xx5xx5xx5xx5xx5xx5xx5xx5665-665
A---------------------------------------------
E---------------------------------------------

Verse 2
Gt1 + Gt2 
e------------------------------------------
B------------------------------------------
G-5---8------------------------------------ x2
D-5-6-8-8-6--------------------------------
A-3-6-6-8-6--------------------------------
E---4---6-4--------------------------------
FIND OUT THE RHYTHM FOR YOURSELF

That should be all you need just play along with the
song so you can figure out all the rhythms!
 
:: Ultimate Guitar Archive :: 
http://www.ultimate-guitar.com 

Comments