In Flames - The Jesters Dance Chords & Tabs

 

The Jesters Dance Chords & Tabs

In Flames Chords & Tabs

Version: 2 Type: Tab 0 ratings
1 star 2 stars 3 stars 4 stars 5 stars
comments

The Jesters Dance Tab

Tuning: Normal.

H : Hammer on
P : Pull
V : Vibration
* : Harmonic
/ : Slide up
\ : Slide down

Rif.1/first guitar.
|--------------------------------------------------------|
|--------------------------------------------------------|
|--------------------------------------------------------|
|-8-10-8----10--8-10-8----10--8-10-8----11-11-10-10-8----|
|--------11------------11------------11---------------11-|
|--------------------------------------------------------|

Second guitar. Sort of solo.
|----------------------------------------------------------|
|----------------------------------------------------------|
|------------------------------------------------3---------|
|-\13-10-h11p-8-6-5-5-h6-3-6-5-6-3-6-5-6-3-6-5-6---6-5-3-1-|
|----------------------------------------------------------|
|----------------------------------------------------------|

|-----------------3-4v-|
|-------------4-6------|
|-------3-5-6----------|
|-3-5-6----------------|
|----------------------|
|----------------------|

Rif.2 Guitar 1.
|----------------------------------------|
|----------------------------------------|
|--------------------------8-------------|
|-10-8-5-6-------------6-8-6-10-------6*-|
|-8--6-3-4-4-3-4-6-4-3-4-6---8--8-6-8----|
|----------------------------------------|
[ Tab from: http://www.guitartabs.cc/tabs/i/in_flames/the_jesters_dance_tab_ver_2.html ]
Guitar 2. sort of solo again.
|---------------|
|---------------|
|---------------|
|-101010-888-10-|  X3
|---------------|
|---------------|

|-------------------------------------------------|
|-------------------------------------------------|
|-----------------------------------------5-------|
|-111111-101010-8-111111-101010-8-6-5-6-7---7-6-5-|
|-------------------------------------------------|
|-------------------------------------------------|

|---------------|
|---------------|
|---------------|
|-101010-888-10-| X2
|---------------|
|---------------|

|------------------------------------|
|------------------------------------|
|-------------------------5----------|
|-111111-101010-8-6-5-6-7---7-6-5-6*-|
|------------------------------------|
|------------------------------------|

Rif.1/first guitar.
|--------------------------------------------------------|
|--------------------------------------------------------|
|--------------------------------------------------------|
|-8-10-8----10--8-10-8----10--8-10-8----11-11-10-10-8----|
|--------11------------11------------11---------------11-|
|--------------------------------------------------------|

Rif.2 Guitar 1.
|----------------------------------------|
|----------------------------------------|
|--------------------------8-------------|
|-10-8-5-6-------------6-8-6-10-------6*-|
|-8--6-3-4-4-3-4-6-4-3-4-6---8--8-6-8----|
|----------------------------------------|


That was whole "The jesters dance" This took almost half an
hour to make this so I hope you enjoy to learn this.
Comments