In Flames - Suburban Me Chords & Tabs

 

Suburban Me Chords & Tabs

In Flames Chords & Tabs

Version: 1 Type: Tab 1 rating
1 star 2 stars 3 stars 4 stars 5 stars
comments

Suburban Me Tab

   
Artist: In Flames
Song:   Suburban Me
Album:  Clayman


Riff A
|--------------------------------------------------------------------|
|--------------------------------------------------------------------|
|----2----2--2---2---2--2/4---4----4----4---4-----9----9-7-----------|Gtr
|----2----2--2h3-3---3--3/5-5-5-55-5-55-5-5-5-55-10---10-9-----------| I
|-00---00---0---0--00--0----.---..---..---.---..---------------------|
|-..---..---.---.--..--.---------------------------------------------|
|                                                                    |
|--------------------------------------------------------------------|
|--------------------------------------------------------------------|
|--------------------------------------------------------------------|Gtr
|--------------------------------------------------------------------| II
|--------------------------------------------------------------------|
|--------------------------------------------------------------------|

cont...
|--------------------------------------------------------------------|
|--------------------------------------------------------------------|
|-2---2----2--2---2---2---5--5--4------------------------------------|Gtr
|-3p2-2----2--2h3-3---3---5--5--5------------------------------------| I
|----0--00---0---0--00--0--------------------------------------------|
|----.--..---.---.--..--.--------------------------------------------|
|                                                                    |
|--------------------------------------------------------------------|
|--------------------------------------------------------------------|
|--------------------------------------------------------------------|Gtr
|--------------------------------------------------------------------| II
|--------------------------------------------------------------------|
|--------------------------------------------------------------------|

Fill 1
|-----------------------------|
|-----------------------------|
|-2---------------------------| Gtrs 1+2
|-2---------------------------|
|-0---------------------------|
|-----------------------------|
|
|-----------------------------|
|---/10-12-13-12h13p12-10-13~-|
|-----------------------------| Gtr 3
|-----------------------------| (Begining of solo 1)
|-----------------------------|
|-----------------------------|

Riff B
  Am         Am2          G         D
|---------------------------------------------------------------------|
|---------------------------------------------------------------------|
|-2--22-2--2--22-2----------------------------------------------------|
|-2--22-2--3--33-3--5--55-5--0----------------------------------------|
|-0--00-0--0--00-0--5--55-5--0----------------(0)---------------------|
|-------------------5--55-5--0----------------(0)---------------------|

Cont...
  Am          Am2         G         D2
|---------------------------------------------------------------------|
|-------------------------------------5---3---------------------------|
|-2--22-2--2--22-2--------------------5---4---------------------------|
|-2--22-2--3--33-3--5--55-5--0----------------------------------------|
|-0--00-0--0--00-0--5--55-5--0------0---0-----------------------------|
|-------------------5--55-5--0------.---.-----------------------------|

Solo 1 (Over Riff B)
|-------------------------------------------------------15-17-17fb---|
|-13p12-15fb--15fb+r-13-15~-13-12-13-12h13p12--------/17-------------|
|--------------------------------------------12-14~------------------|
|--------------------------------------------------------------------|
|--------------------------------------------------------------------|
|--------------------------------------------------------------------|

|--+r--/15-17-17fb-+r-17fb+*rfb~~------------------------------------|
|------------------------------------15-13-12-13-12h13p12------------|
|--------------------------------------------------------12-14~------|
|--------------------------------------------------------------------|
|--------------------------------------------------------------------|
|--------------------------------------------------------------------|
             *- half release

Riff C
|---0---------0h1-0--------0-----------------------------------------|
|-----------3-------3~-----------------------------------------------|
|-2-------2--------------2-------------------------------------------| Gtrs 1+2
|--------------------------------------------------------------------|
|--------------------------------------------------------------------|
|--------------------------------------------------------------------|

Riff D
|--------------------------------------------------------------------|
|--------------------------------------------------------------------|
|--------------5-5---------------------------------------------------| Gtrs 1+2
|--3-3---0-0---5-5---5----(5)----------------------------------------|
|--3-3---0-0---3-3---5----(5)----------------------------------------|
|--3-3---0-0---------5----(5)----------------------------------------|

Riff c.2
|---0---------0h1-0-------0------------------------------------------|
|-----------3-------3~-----------------------------------------------|
|-2-------2-------------2--------------------------------------------| Gtr 1
|--------------------------------------------------------------------|
|--------------------------------------------------------------------|
|--------------------------------------------------------------------|
|                                                                    |
|--------------------------------------------------------------------|
|---1-------0-1-3-1-0~----1------------------------------------------|
|-2-------X-------------2--------------------------------------------|
|--------------------------------------------------------------------|
|--------------------------------------------------------------------|
|--------------------------------------------------------------------|

Repeat Riff D

Riff E
|--------------------------------------------------------------------|
|--------------------------------------------------------------------|
|--------------------------------------------------------------------|
|-----5---4---5----------5---4------5---4---5------------------------|
|-~-----------------------------~------------------5-5---------------|
|-2-0---0---0---0~-0-0-0---0----2-0---0---0----4-4-5-5---------------|
|   .   .   .      . . .   .      .   .   .
|--------------------------------------------------------------------|
|--------------------------------------------------------------------|
|--------------------------------------------------------------------|
|-----9---7---9----------9---7------9---7---9------------------------|
|-~-----------------------------~------------------5-5---------------|
|-2-0---0---0---0~-0-0-0---0----2-0---0---0----4-4-5-5---------------|
    .   .   .      . . .   .      .   .   .
cont...
|--------------------------------------------------------------------|
|--------------------------------------------------------------------|
|--------------------------------------------------------------------|
|-----5---4---5----------5---4------5---4---5------------------------|
|-~-----------------------------~------------------5-5--3-3-5-5------|
|-2-0---0---0---0~-0-0-0---0----2-0---0---0----4-4-5-5--3-3-5-5------|
|   .   .   .      . . .   .      .   .   .
|--------------------------------------------------------------------|
|--------------------------------------------------------------------|
|--------------------------------------------------------------------|
|-----9---7---9----------9---7------9---7---9------------------------|
|-~-----------------------------~------------------5-5--3-3-5-5------|
|-2-0---0---0---0~-0-0-0---0----2-0---0---0----4-4-5-5--3-3-5-5------|
    .   .   .      . . .   .      .   .   .

Riff F (Chorus, over Riff B... It's not perfect but it fits)
  Am         Am2         G          D (D2 on repeat)
|--------------------------------------------------------------------|
|--------------------------------------------------------------------|
|-/5~---(5)----5-4h5p4--------/5-4h5p4---------------/4-5-7~---------|
|----------------------5-5~------------5-7~----5h7~------------------|
|--------------------------------------------------------------------|
|--------------------------------------------------------------------|
[ Tab from: http://www.guitartabs.cc/tabs/i/in_flames/suburban_me_tab.html ]
 Riff C.3
|---0---------0h1-0-------0------------------------------------------|
|-----------3-------3~-----------------------------------------------|
|-2-------2-------------2--------------------------------------------| Gtr 1
|--------------------------------------------------------------------|
|--------------------------------------------------------------------|
|--------------------------------------------------------------------|
|                                                                    |
|-------------------------0------------------------------------------|
|---1-------0-1-3-1-0~-----------------------------------------------|
|-2-------X-------------2--------------------------------------------| Gtr 2
|--------------------------------------------------------------------|
|--------------------------------------------------------------------|
|--------------------------------------------------------------------|

 Repeat Riff D

Riff C.4 (Replacment riff)
|--------------------------------------------------------------------|
|--------------------------------------------------------------------|
|-----------------------------------------------------------5-5------| Gtrs 1+2
|-7-------------------------------------------------3-3-0-0-5-5-5----|
|-7--55555555-3333333333333333-77777777-55555555----3-3-0-0-3-3-5----|
|-7--55555555-3333333333333333-77777777-55555555----3-3-0-0-----5----|

Repeat Riff D
       Riff E
       Riff F X 2

Fill 2 (Begining of Solo 2)
|-----------------------------|
|-----------------------------|
|-3------------5--------------| Gtrs 1+2
|-3------------5--------------|
|-1------------3--------------|
|-----------------------------|

Solo 2
|------------------------------------------------------------------------------|
|------------------------------------------------------------------------------|
|------------------------------------------------12-14-16--12-14-16------------|
|-----------------------------12-14-16--12-14-16-------------------------------|
|----------12-14-15--12-14-15--------------------------------------------------|
|-12-14-15---------------------------------------------------------------------|

|--------------------14-15-17----------15-17-19--15-17-19----------17-19-20-22b|
|-13-15-17--13-15-17----------15-17-19--------------------17-19-20-------------|
|------------------------------------------------------------------------------|
|------------------------------------------------------------------------------|
|------------------------------------------------------------------------------|
|------------------------------------------------------------------------------|

|---------------------------------------------------------12--14b---r12---15fb-|
|-15fb-------15fb----r12-------15fb------------------12b-----------------------|
|------------------------------------------------------------------------------|
|------------------------------------------------------------------------------|
|------------------------------------------------------------------------------|
|------------------------------------------------------------------------------|

|-15-12----------12-15-12----12-15-12----------12---15\19-15----------19-15-19-|
|-------13-12-13----------13----------13-12-13---------------17-15-17----------|
|------------------------------------------------------------------------------|
|------------------------------------------------------------------------------|
|------------------------------------------------------------------------------|
|------------------------------------------------------------------------------|

|----------19-15-19------15-21-17----------17-21-17----------17-21-17----------|
|-17-15-17----------17---------------------------------------------------------|
|---------------------------------19-18-19----------19-18-19-----------19------|
|------------------------------------------------------------------------------|
|------------------------------------------------------------------------------|
|------------------------------------------------------------------------------|

|-17-22-17----------17---22fb~--22\17--17/19--19\15--15/17---15fb--------------|
|----------19-17-19-------------22\19--19/20--20\17--17/19---17fb-----r15~~~~~~|
|------------------------------------------------------------------------------|
|------------------------------------------------------------------------------|
|------------------------------------------------------------------------------|
|------------------------------------------------------------------------------|

|-15fb------r14---15-14-12~~~-------19-------17-------19-------22fb------------|
|-----------------------------15/17----17\15----15/17----17/20-----------------|
|------------------------------------------------------------------------------|
|------------------------------------------------------------------------------|
|------------------------------------------------------------------------------|
|------------------------------------------------------------------------------|

|-22fb-19\17-------------------------------------------------------------------|
|------------20-15fb---17-15------------15-------------------------------------|
|----------------------------16---16-16----16\14--12----12~----\5ph------------|
|------------------------------------------------------------------------------|
|------------------------------------------------------------------------------|
|------------------------------------------------------------------------------|

								vibrate and 
								depress tremelo

Rhythm under solo 2
|--------------------------------------------------------------------|
|--------------------------------------------------------------------|
|-------------5-----------------------------------5------------------|
|--8----0-----5------------------8----------5-----5------------------|
|--8----0-----3--------0-2-3-5---8----8-----5-----3------------------|
|--8----0----------3-5-----------8----7-----5------------------------|
|
|--------------------------------------------------------------------|
|--------------------------------------------------------------------|
|-------------5-----------------------------------5------------------|
|--8----0-----5------------------8----------5-----5------------------|
|--8----0-----3------------0-2---8----8-----5-----3------------------|
|--8----0----------0-2-3-5-------8----7-----5------------------------|

 Cont...
|--------------------------------------------------------------------|
|--------------------------------------------------------------------|
|-------------5---------------------------5--------------------------|
|--8----0-----5-----------------8----0----5---------------7-5-----5--|
|--8----0-----3--------0-2-3-5--8----0----3-------0-2-3-5-----8-7---7|
|--8----0----------3-5----------8----0--------3-5--------------------|
|
|--------------------------------------------------------------------|
|--------------------------------------------------------------------|
|-------------5---------------------------5--------------------------|
|--8----0-----5-----------------8----0----5--------------------------|
|--8----0-----3------------0-2--8----0----3-----------0-2-8-7-5-3-7-3|
|--8----0----------0-2-3-5------8----0--------0-2-3-5----------------|


Repeat Riff E

Riff G (Over Riff A w/wah)
|--------------------------------------------------------------------|
|--------------------------------------------------------------------|
|--/5-5-5--/5-4-/4------------------/5-5-5-/5-4--/5-/7-7~------------|
|------------------5-5~-------(5)------------------------------------|
|--------------------------------------------------------------------|
|--------------------------------------------------------------------|

Repeat Riff F X 2 w/Riff B

End
|--------------------------------------------------------------------|
|--------------------------------------------------------------------|
|--------------------------2~----------------------------------------|
|--------------------------2~----------------------------------------|
|--0-2-3-5-3-2-0-2-3-5-3-2-0~----------------------------------------|
|--------------------------------------------------------------------|
|
|--------------------------------------------------------------------|
|--------------------------------------------------------------------|
|--------------------------------------------------------------------|
|----------2-----------2---------------------------------------------|
|--0-2-3-5---5-0-2-3-5---5-3~----------------------------------------|
|--------------------------------------------------------------------|
Comments