In Flames - Pallar Anders Visa Chords & Tabs

 

Pallar Anders Visa Chords & Tabs

In Flames Chords & Tabs

Version: 1 Type: Tab 0 ratings
1 star 2 stars 3 stars 4 stars 5 stars
comments

Pallar Anders Visa Tab

   
----------------------------------------------------------------------------
		    In Flames - Pallar Anders Visa
----------------------------------------------------------------------------
Tabbed by: PooksInSC
Email: pookshasjunk@hotmail.com


 h  hammer-on
 p  pull-off
 ~  vibrato


Tuning: Tune Down 1&1/2 Steps (C# F# B E G# C#)

Intro:
C#|--------0-------|--------0-------|--------0-------|0---------------|
G#|----------1-----|----------1-----|----------1-----|1---------(Lead)|
E |------2-----2---|----2-------2---|------2-----2---|2-------------7-|
B |----2---------2-|--2---2-------2-|----2---------2-|2-----------10--|
F#|0---------------|0---------------|0---------------|0---------------|
C#|----------------|----------------|----------------|----------------|
                                                      ~


Lead:
C#|----------------|----------------|----------------|----------------|
G#|----------------|----------------|----------------|----------------|
E |7h9-9-----------|----------------|----------------|--------------7-|
B |-----10-7---7-9-|10--10--7--10---|9-7h9p7-6---6-9-|7-----------10--|
F#|----------------|----------------|----------7-----|----------------|
C#|----------------|----------------|----------------|----------------|
           ~~~~                      ~~               ~~~~~~~~~~~~
[ Tab from: http://www.guitartabs.cc/tabs/i/in_flames/pallar_anders_visa_tab.html ]
C#|----------------|----------------|----------------|----------------|
G#|----------------|----------------|----------------|----------------|
E |7h9--10p9p7-7-9-|h10-10--7-----7-|--------7---7-10|9-----------9-7-|
B |----------------|----------------|10----10-10-----|----------------|
F#|----------------|----------------|----------------|----------------|
C#|----------------|----------------|----------------|----------------|
                            ~~~~~~   ~~~~~~           ~~~~~~~~~~~~

C#|----------------|----------------|----------------|----------------|
G#|----------------|----------------|----------------|----------------|
E |9------9--------|--------7---9---|----------------|----------------|
B |---------10---10|9---10----------|10----7-7-7h9p7-|----------------|
F#|----------------|----------------|----------------|10------7-----7-|
C#|----------------|----------------|----------------|----------------|
   ~~~~~~~                           ~~~~~~

C#|----------------|----------------|----------------|----------------|
G#|----------------|----------------|----------------|----------------|
E |--------------9-|7-7h9p7---------|----------------|--------------7-|
B |7--7-9-10-9-10--|--------10--7---|9-7h9p7-6---6-9-|7-----------10--|
F#|----------------|----------------|----------7-----|----------------|
C#|----------------|----------------|----------------|----------------|
                                                      ~~~~~~~~~~~~

The next section is similar to the previous passage, but includes a harmony. The last 29
or so measures of the song strummed variations of chords (A5 & Am) on guitar,accompanied
by a string orchestration (which, unfortunately, I have yet to decipher).
Comments