In Flames - Only For The Weak Chords & Tabs

 

Only For The Weak Chords & Tabs

In Flames Chords & Tabs

Version: 2 Type: Tab 0 ratings
1 star 2 stars 3 stars 4 stars 5 stars
comments

Only For The Weak Tab

NOTE TO USERS: IF YOU OPEN THIS TAB IN NOTEPAD, IT WILL BE IN DISORDER,
               BETTER OPEN IT IN W0RDPAD

BAND: IN FLAMES
SONG: ONLY FOR THE WEAK
TABBED BY YASHVEEN- THE GREATEST CHILDREN OF BODOM FAN

STANDARD TUNING (eBGDAE)

HEY, WHAT'S UP. I'VE TABBED THIS SONG BY MYSELF. IT'S THE
FIRST IN FLAMES TAB I'VE FUCKING TAB. IT IS COMPLETE BUT
100% EXACT BUT IT FUCKING WORKS. SO ENJOY AND NO COMMENTS
PLEASE CUZ I'VE WORKED HARD ON IT.

_____________________________________________________
KEY:
^= BEND
^^=HOLD BEND
s=SLIDE
h=HAMMER ON
p=PULLOFF
_____________________________________________________

INTRO( x2)

GUITAR 1
e---------------------------------------------------------------------------------------------|
B---------------------------------------------------------------------------------------------|
G---------------------------------------------------------------------------------------------|
D----2--2--2--2-----7---7---7---7---10-10-10-10------12-12-12-12------------------------------|
A----2--2--2--2-----7---7---7---7---10-10-10-10------12-12-12-12------------------------------|
E----0--0--0--0-----5---5---5---5----8--8--8--8------10-10-10-10------------------------------|

GUITAR 2
e---------------------------------------------------------------------------------------------|
B---------------------------------------------------------------------------------------------|
G----14---------14----15----14---12---10----9-------------------------------------------------|
D-----x----------x-----x-----x----x----x----x-------------------------------------------------|
A----12---------12----13----12---10----8----7-------------------------------------------------|
E---------------------------------------------------------------------------------------------|

GUITAR 1
e---------------------------------------------------------------------------------------------|
B---------------------------------------------------------------------------------------------|
G---------------------------------------------------------------------------------------------|
D----2--2--2--2-----7---7---7---7----5---5--5---5------12--12--12--12-------------------------|
A----2--2--2--2-----7---7---7---7----5---5--5---5------12--12--12--12-------------------------|
E----0--0--0--0-----5---5---5---5----3---3--3---3------10--10--10--10-------------------------|


e---------------------------------------------------------------------------------------------|
B---------------------------------------------------------------------------------------------|
G----14----------12---10---9---7---9---5------------------------------------------------------|
D-----x----------x-----x---x---x---x---x------------------------------------------------------|
A----12----------10----8---7---5---7---3------------------------------------------------------|
E---------------------------------------------------------------------------------------------|

CONTINUED
e---------------------------------------------------------------------------------------------|
B---------------------------------------------------------------------------------------------|
G------7~~~-----------------------------------------------------------------------------------|
D------x--------------------------------------------------------------------------------------|
A------5~~~-----------------------------------------------------------------------------------|
E---------------------------------------------------------------------------------------------|


VERSE

GUITAR 1
e---------------------------------------------------------------------------------------------|
B---------------------------------------------------------------------------------------------|
G---------------------------------------------------------------------------------------------|
D-------2---2---2---2-------------------------------------------------------------------------|
A-------2---2---2---2-------------------------------------------------------------------------|
E-------0---0---0---0-------------------------------------------------------------------------|

GUITAR 2
e---------------------------------------------------------------------------------------------|
B---------------------------------------------------------------------------------------------|
G---------------------------------------------------------------------------------------------|
D---------4h5-----5^--------4h5--4h5^------4h5--------5^--------------------------------------|
A---------------------------------------------------------------------------------------------|
E---------------------------------------------------------------------------------------------|

WHEN HE STARTS TO SING

GUITAR 1
e---------------------------------------------------------------------------------------------|
B---------------------------------------------------------------------------------------------|
G---------------------------------------------------------------------------------------------|
D------2---2---2---2----5---5---5---5----2--2--2--2----7--7--7--7-----------------------------|(x2)
A------2---2---2---2----5---5---5---5----2--2--2--2----7--7--7--7-----------------------------|
E------0---0---0---0----3---3---3---3----0--0--0--0----5--5--5--5-----------------------------|

GUITAR 2
e---------------------------------------------------------------------------------------------|
B---------------------------------------------------------------------------------------------|
G------15---14---12^---14---10^----------15--14--12^--10---14^--------------------------------|
D---------------------------------------------------------------------------------------------|(x2)
A---------------------------------------------------------------------------------------------|
E---------------------------------------------------------------------------------------------|

GUITAR 1(when he says "i feel so guilty")
e---------------------------------------------------------------------------------------------|
B---------------------------------------------------------------------------------------------|
G---------------------------------------------------------------------------------------------|
D------2-----2-----5-----5-----7-----7--------8---------10------------------------------------|(x2)
A------2-----2-----5-----5-----7-----7--x--x--8---x--x--10------------------------------------|
E------0-----0-----3-----3-----5-----5--x--x--6---x--x---8------------------------------------|

GUITAR 2
e---------------------------------------------------------------------------------------------|
B---------------------------------------------------------------------------------------------|
G-------same as guitar 1----------------------------------------------------------------------|
D---------------------------------------------------------------------------------------------|
A---------------------------------------------------------------------------------------------|
E---------------------------------------------------------------------------------------------|

PRE-CHORUS

GUITAR 1
e---------------------------------------------------------------------------------------------|
B---------------------------------------------------------------------------------------------|
G---------------------------------------------------------------------------------------------|
D------7---------2--------6-------4-----------------------------------------------------------|
A------7---------2--------6-------4-----------------------------------------------------------|
E------5---------0--------4-------2-----------------------------------------------------------|

GUITAR 2
e---------------------------------------------------|
B---------------------------------------------------|
G-----17--19--20--19--17--15^-13--15--12h13p12--10--|
D---------------------------------------------------|
A---------------------------------------------------|
E---------------------------------------------------|

GUITAR 1
e---------------------------------------------------------------------------------------------|
B---------------------------------------------------------------------------------------------|
G---------------------------------------------------------------------------------------------|
D------7---------2--------6-------4-----------------------------------------------------------|
A------7---------2--------6-------4-----------------------------------------------------------|
E------5---------0--------4-------2-----------------------------------------------------------|

GUITAR 2
e---------------------------------------------------------------------------------------------|
B---------------------------------------------------------------------------------------------|
G-----17--19--20--19--17--15^----20--19--17--19-----------------------------------------------|
D---------------------------------------------------------------------------------------------|
A---------------------------------------------------------------------------------------------|
E---------------------------------------------------------------------------------------------|

GUITAR 1
e---------------------------------------------------------------------------------------------|
B---------------------------------------------------------------------------------------------|
G---------------------------------------------------------------------------------------------|
D------7---------2--------6-------4-----------------------------------------------------------|
A------7---------2--------6-------4-----------------------------------------------------------|
E------5---------0--------4-------2-----------------------------------------------------------|

GUITAR 2
e---------------------------------------------------------------------------------------------|
B---------------------------------------------------------------------------------------------|
G-----17--19--20--19--17--15^-13--15--12h13p12--10--------------------------------------------|
D---------------------------------------------------------------------------------------------|
A---------------------------------------------------------------------------------------------|
E---------------------------------------------------------------------------------------------|

GUITAR 1
e---------------------------------------------------------------------------------------------|
B---------------------------------------------------------------------------------------------|
G---------------------------------------------------------------------------------------------|
D------7---------2--------6-------4-----------------------------------------------------------|
A------7---------2--------6-------4-----------------------------------------------------------|
E------5---------0--------4-------2-----------------------------------------------------------|

GUITAR 2
e---------------------------------------------------------------------------------------------|
B---------------------------------------------------------------------------------------------|
G-----17--19--20--19--17--15^----20--19--17--19-----------------------------------------------|
D---------------------------------------------------------------------------------------------|
A---------------------------------------------------------------------------------------------|
E---------------------------------------------------------------------------------------------|


CHORUS=INTRO

VERSE TO DO

PRE-CHORUS TO DO

CHORUS TO DO (x4)


SOLO
[ Tab from: http://www.guitartabs.cc/tabs/i/in_flames/only_for_the_weak_tab_ver_2.html ]
GUITAR 1
e---------------------------------------------------------------------------------------------|
B---------------------------------------------------------------------------------------------|
G---------------------------------------------------------------------------------------------|
D-----------same as-verse 'when he starts to sing'--------------------------------------------|
A---------------------------------------------------------------------------------------------|
E---------------------------------------------------------------------------------------------|

GUITAR 2
e---------------------------------------------------------------------------------------------|
B--17---17-----------------------------14----15--14h15p14-12----------------------------------|
G-----16---16--14--13--14^----14----14-------------------------14^----------------------------|
D---------------------------------------------------------------------------------------------|
A---------------------------------------------------------------------------------------------|
E---------------------------------------------------------------------------------------------|

GUITAR 1
e---------------------------------------------------------------------------------------------|
B---------------------------------------------------------------------------------------------|
G---------------------------------------------------------------------------------------------|
D-------same as pre-chorus BUT hold on the notes----------------------------------------------|
A---------------------------------------------------------------------------------------------|
E---------------------------------------------------------------------------------------------|

GUITAR 2
e---------------------------------------------------------------------------------------------|
B--17----17-----------------------------------------------------------------------------------|
G-----16-----16--14--13--14--13--11h13p11--9--11^---------------------------------------------|
D---------------------------------------------------------------------------------------------|
A---------------------------------------------------------------------------------------------|
E---------------------------------------------------------------------------------------------|

TWO GUITARS
GUITAR 1
e---------------------------------------------------------------------------------------------|
B--------7----8--7h8p7--5---7^----------------------------------------------------------------|
G------7---7----------------------------------------------------------------------------------|
D---------------------------------------------------------------------------------------------|
A---------------------------------------------------------------------------------------------|
E---------------------------------------------------------------------------------------------|

GUITAR 2
e---------------------------------------------------------------------------------------------|
B------14----15--14h15p14--12--14^------------------------------------------------------------|
G---14----14----------------------------------------------------------------------------------|
D---------------------------------------------------------------------------------------------|
A---------------------------------------------------------------------------------------------|
E---------------------------------------------------------------------------------------------|

GUITAR 1
e--------5----7--5h7p5-----5------------------------------------------------------------------|
B-----7----7------------8---------------------------------------------------------------------|
G---------------------------------------------------------------------------------------------|
D---------------------------------------------------------------------------------------------|
A---------------------------------------------------------------------------------------------|
E---------------------------------------------------------------------------------------------|

GUITAR 2
e-------12-----14--12h14p12-----12------------------------------------------------------------|
B----14----14----------------15---------------------------------------------------------------|
G---------------------------------------------------------------------------------------------|
D---------------------------------------------------------------------------------------------|
A---------------------------------------------------------------------------------------------|
E---------------------------------------------------------------------------------------------|

GUITAR 1
e---------------------------------------------------------------------------------------------|
B---------------------------------------------------------------------------------------------|
G---------------------------------------------------------------------------------------------|
D---------------------------------------------------------------------------------------------|
A---------------------------------------------------------------------------------------------|
E---------------------------------------------------------------------------------------------|

GUITAR 2
e----------15--18p15------------15--20p15-------------15-20p15--------------15----------------|
B-------16-----------16-----16-------------16-----16------------16------16--------------------|
G----17-----------------17--------------------17--------------------17------------------------|
D---------------------------------------------------------------------------------------------|
A---------------------------------------------------------------------------------------------|
E---------------------------------------------------------------------------------------------|

GUITAR 1
e---------------------------------------------------------------------------------------------|
B---------------------------------------------------------------------------------------------|
G---------------------------------------------------------------------------------------------|
D---------same as pre-chorus BUT hold on the notes--------------------------------------------|
A---------------------------------------------------------------------------------------------|
E---------------------------------------------------------------------------------------------|

GUITAR 2
e-----16p15p13---16p15p13---------------------------------------------------------------------|
B----------------------------16p15p13--16p15p13-----------------------------------------------|
G---------------------------------------------------------------------------------------------|
D---------------------------------------------------------------------------------------------|
A---------------------------------------------------------------------------------------------|
E---------------------------------------------------------------------------------------------|

GUITAR 1
e---------------------------------------------------------------------------------------------|
B---------------------------------------------------------------------------------------------|
G-------same as intro-------------------------------------------------------------------------|
D---------------------------------------------------------------------------------------------|
A---------------------------------------------------------------------------------------------|
E---------------------------------------------------------------------------------------------|

GUITAR 2
e---------------------------------------------------------------------------------------------|
B--------------------------14------14----16------16--18------16--14h16p14-13-11---------------|
G---(17^)-17-------13--17---------------------------------------------------------------------|
D--------------15--------------15------------15----------15-----------------------------------|
A---------------------------------------------------------------------------------------------|
E---------------------------------------------------------------------------------------------|

GUITAR 1
e---------------------------------------------------------------------------------------------|
B---------------------------------------------------------------------------------------------|
G---------------------------------------------------------------------------------------------|
D------same as intro continued----------------------------------------------------------------|
A---------------------------------------------------------------------------------------------|
E---------------------------------------------------------------------------------------------|

GUITAR 2
e---------------------------------------------------------------------------------------------|
B-----------------14--------------------------------------------------------------------------|
G----17------13--------17-15--13-13s15^--13--12--10^------------------------------------------|
D--------15-----------------------------------------------------------------------------------|
A---------------------------------------------------------------------------------------------|
E---------------------------------------------------------------------------------------------|

GUITAR 1
e---------------------------------------------------------------------------------------------|
B---------------------------------------------------------------------------------------------|
G---------------------------------------------------------------------------------------------|
D-------same as intro-------------------------------------------------------------------------|
A---------------------------------------------------------------------------------------------|
E---------------------------------------------------------------------------------------------|

GUITAR 2
e---------------------------------------------------------------------------------------------|
B--------------------------14------14----16------16--18------16--14h16p14-13-11---------------|
G---(17^)-17-------13--17---------------------------------------------------------------------|
D--------------15--------------15------------15----------15-----------------------------------|
A---------------------------------------------------------------------------------------------|
E---------------------------------------------------------------------------------------------|

GUITAR 1
e---------------------------------------------------------------------------------------------|
B---------------------------------------------------------------------------------------------|
G---------------------------------------------------------------------------------------------|
D---------same as intro continued-------------------------------------------------------------|
A---------------------------------------------------------------------------------------------|
E---------------------------------------------------------------------------------------------|

GUITAR 2
e---------------------------------------------------------------------------------------------|
B--------------------------14--------14--16^-14--13--18^^-------------------------------------|
G------17--------13--17-----------------------------------------------------------------------|
D-----------15------------------15------------------------------------------------------------|
A---------------------------------------------------------------------------------------------|
E---------------------------------------------------------------------------------------------|


FOR THE REST OF THE CHORUS, YOU JUST HAVE TO INCREASE THE OCTAVE BY TWO FRETS.

GREAT FUCKING SONG. IF YOU LIKED IT, CHECK OUT COB(CHILDREN OF BODOM AND YOU WILL HEAR 
GREATEST AND FASTEST SOLOS)

CHILDREN OF BODOM KICKS THE ASS OF EVERY FUCKING METAL BAND.
Comments