In Flames - My Sweet Shadow Chords & Tabs

 

My Sweet Shadow Chords & Tabs

In Flames Chords & Tabs

Version: 1 Type: Bass Tab 0 ratings
1 star 2 stars 3 stars 4 stars 5 stars
comments

My Sweet Shadow Bass Tab

"My Sweet Shadow" - In Flames
From the album "Soundtrack to your Escape"

Tabbed by Isthar

Tuning: D#|---------|
        A#|---------|
        F |---------|
        A#|---------| 

Intro
|-----------------------------|
|-----------------------------|
|----1-3-1-----3---1-3-1------|
|--0-------5-3---0-------5-3--| 

Verse 1
|-------------------------------------------|
|-------------------------------------------|
|----------------------1111-1111------------|
|--0000-0000-0000-0000-----------5555-5555--|

|-------------------------------------------|
|-------------------------------------------|
|--------------------------------3333-3333--|  x2
|--0000-0000-0000-0000-3333-3333------------|

Bridge 1
|---------------------------------|
|---------------------------------| 
|---------------------------------|  x2
|--00-0-00-00-0-0-00-00-0-00-8-8--|  

|--R--|
|--E--| 
|--S--|
|--T--|
[ Tab from: http://www.guitartabs.cc/tabs/i/in_flames/my_sweet_shadow_btab.html ]
Pre-Chorus
|-------------------------------------|
|-------------------------------------|
|---------------1-0--------------1-3--|  x2
|--5555-555-555-----5555-555-555------|

Chorus 1
|---------------------------------------------|
|---------------------------------------------|
|----1-3-1-----3---1-3-1-----3---1-3-1-----3--|
|--0-------5-3---0-------5-3---0-------5-3----|

|--R--|
|--E--| 
|--S--|
|--T--|

Pre-Chorus  x2

Chorus 2
|-------------------------------|
|-------------------------------|
|----1-3-1-----3---1-3-1-----3--|
|--0-------5-3---0-------5-3----|

Bridge 2
|-----------------|
|-----------------|
|-----------------|
|--00-000-00-000--|

Verse 2
|-------------------------------------------------------------|
|-------------------------------------------------------------|
|----------------------------3-3---------------------------3--|  x2
|--22-2-22-22-2-2-22-22-2-22-----22-2-22-22-2-2-22-22-2-22----|

Chorus 1  x2

Outro
|-------------------------|
|-------------------------|
|----1-3-1-----3----------|
|--0-------5-3---00-0-00--|

That's it! Please rate!
Comments