In Flames - Man Made God Chords & Tabs

 

Man Made God Chords & Tabs

In Flames Chords & Tabs

Version: 1 Type: Bass Tab 0 ratings
1 star 2 stars 3 stars 4 stars 5 stars
comments

Man Made God Bass Tab

   
Band: In Flames
Song: Man Made God
Tabbed by: Cuong, mr.r_lightning


I got so f*cking lazy while tabbing this song, but it's all done,
I have tabbed the whole sh*t in the perfect order..
It may look pretty hard, but you'll get it right away (unless you're
a f*cking newbie:-P)

Well here it is, good luck!
                                                                      
G||-------------------|------------------------------------------------|
D||-------------------|------------------------------------------------|
A||-------------------|--0----0--0--0--0--0--0-------------------------|
E||--1----------------|-------------------------1----1--1--1--1--1--1--|
B||-------------------|------------------------------------------------|


(two stars mean repeat)                                             
|--------------------------------------------------|
|*-------------------------------------------------|
|-----------------------------------------0--2--3--|
|*--3----3--3--3--3--3--3--3--3--3--3--3-----------|
|--------------------------------------------------|


                                                 
------------------------------------------------|
------------------------------------------------|
--0----0--0--0--0--0--0-------------------------|
-------------------------1----1--1--1--1--1--1--|
------------------------------------------------|


                                                  
-------------------------------------------------|
-------------------------------------------------|
-------------------------------------------------|
--3----3--3--3--3--3--3--3--3--3--3--3--0--0--0--|
-------------------------------------------------|


                                                   
-------------------------------------------------||
------------------------------------------------*||
--0----0--0--0--0--0--0--------------------------||
-------------------------1----1--1--1--1--1--1--*||
-------------------------------------------------||


                                      
-------------------------------------|
-------------------------------------|
--------------------0----------------|
--1--------------3-------------------|
-------------------------------------|


                                             
|-------------------------------------------|
|*------------------------------------------|
|-------------------------------------------|
|*--0----0----0----0----0----0----0----0----|
|-------------------------------------------|


                                             
-------------------------------------------||
------------0-------------------0---------*||
-------------------------------------------||
--0----0---------0----0----0---------0----*||
-------------------------------------------||


                                                  
-------------------------------------------------|
*------------------------------------------------|
--------------------------0----0--0--0--0--0--0--|
*--1----1--1--1--1--1--1-------------------------|
-------------------------------------------------|


                                                                             
-------------------------------------------------||-------------------------|
------------------------------------------------*||-------------------------|
-------------------------0----0--0--0------------||-------------------------|
--1----1--1--1--1--1--1----------------3--3--3--*||--1----1--1--1--1--1--1--|
-------------------------------------------------||-------------------------|


                                             
|-------------------------------------------|
|*------------------------------------------|
|-------------------------------------------|
|*--0----0----0----0----0----0----0----0----|
|-------------------------------------------|


                                             
-------------------------------------------||
------------0-------------------0---------*||
-------------------------------------------||
--0----0---------0----0----0---------0----*||
-------------------------------------------||


                                                 
------------------------------------------------|
------------------------------------------------|
-------------------------0----0--0--0--0--0--0--|
--1----1--1--1--1--1--1-------------------------|
------------------------------------------------|


                                                                              
------------------------------------------|----------------------------------|
------------------------------------------|----------------------------------|
-------------------------0----------------|----------------------------------|
--1----1--1--1--1--1--1-------------------|----------------------------------|
------------------------------------------|----------------------------------|


                                                                        
------------------------------------|----------------------------------|
------------------------------------|----------------------------------|
--0--0------------------------------|----------------------------------|
------------------------------------|----------------------------------|
------------------------------------|----------------------------------|


                                                                          
|-----------------------------------|-----------------------------------||
|*----------------------------------|----------------------------------*||
|-----------------------------------|-----------------------------------||
|*----------------------------------|----------------------------------*||
|-----------------------------------|-----------------------------------||


                                                                      
----------------------------------|----------------------------------|
----------------------------------|----------------------------------|
----------------------------------|----------------------------------|
----------------------------------|----------------------------------|
----------------------------------|----------------------------------|


                                             
--------------------------------------------|
--------------------------------------------|
--3-------------0------0--0--0--0--0--0--0--|
---------3----------------------------------|
--------------------------------------------|


                                                
|----------------------------------------------|
|*---------------------------------0--2--3--2--|
|---0--------0---------------0--3--------------|
|*--------------0----1----3--------------------|
|----------------------------------------------|


                                             
-------------------------------------------||
--0----------0--0-------------------------*||
-------------------------------------------||
-------------------0--3------1------1--1--*||
-------------------------------------------||


                                           
------------------------------------------|
--0----------0--0-------------------------|
------------------------------------------|
-------------------0--1------3------3--3--|
------------------------------------------|


                                               
----------------------------------------------|
----------------------------------------------|
----------------------------------------------|
--1----1--3----3--3--3--0----0--1----1--1--1--|
----------------------------------------------|


                                             
--------------------------------------------|
--------------------------------------------|
--3-------------0------0--0--0--0--0--0--0--|
---------3----------------------------------|
--------------------------------------------|


                                               
----------------------------------------------|
----------------------------------------------|
----------------------------------------------|
--1----1--3----3--3--3--0----0--1----1--1--1--|
----------------------------------------------|


                                                                       
--------------------------------------------|-------------------------|
--------------------------------------------|-------------------------|
--3-------------0------0--0--0--0--0--0--0--|----0--0--0--0--0--0--0--|
---------3----------------------------------|-------------------------|
--------------------------------------------|-------------------------|

[ Tab from: http://www.guitartabs.cc/tabs/i/in_flames/man_made_god_btab.html ]
                                                 
------------------------------------------------|
------------------------------------------------|
--2----2--2--2--2--2--2-------------------------|
-------------------------3----3--3--3--3--3--3--|
------------------------------------------------|


                                                    
|--------------------------------------------------|
|*-------------------------------------------------|
|-----------------------------------------2--4--5--|
|*--5----5--5--5--5--5--5--5--5--5--5--5-----------|
|--------------------------------------------------|


                                                 
------------------------------------------------|
------------------------------------------------|
--2----2--2--2--2--2--2-------------------------|
-------------------------3----3--3--3--3--3--3--|
------------------------------------------------|


                                                  
-------------------------------------------------|
-------------------------------------------------|
-------------------------------------------------|
--5----5--5--5--5--5--5--5--5--5--5--5--2--2--2--|
-------------------------------------------------|


                                                   
-------------------------------------------------||
------------------------------------------------*||
--2----2--2--2--2--2--2--------------------------||
-------------------------3----3--3--3--3--3--3--*||
-------------------------------------------------||


                                     
------------------------------------|
------------------------------------|
-------------------0----------------|
--1---------------------------------|
------------------------------------|


                                             
|-------------------------------------------|
|*------------------------------------------|
|-------------------------------------------|
|*--0----0----0----0----0----0----0----0----|
|-------------------------------------------|


                                             
-------------------------------------------||
------------0-------------------0---------*||
-------------------------------------------||
--0----0---------0----0----0---------0----*||
-------------------------------------------||


                                                                           
------------------------------------------------|-------------------------|
------------------------------------------------|-------------------------|
-------------------------0----0--0--0-----------|-------------------------|
--1----1--1--1--1--1--1----------------3--3--3--|--1----1--1--1--1--1--1--|
------------------------------------------------|-------------------------|


                                                         
|-------------------------------------------------------|
|*------------------------------------------------------|
|---0----0-0-0--0-0-0--0-0-0--0-0-0--0-0-0--0-0-0-------|
|*-------------------------------------------------0----|
|-------------------------------------------------------|


                                                 
-----------------------------------------------||
----------------------------------------------*||
----------------------------3------------------||
--1----1-1-1--1-1-1--1-1-1-----------3--------*||
-----------------------------------------------||


                                                        
-------------------------------------------------------|
*------------------------------------------------------|
---0----0-0-0--0-0-0--0-0-0--0-0-0--0-0-0--0-0-0-------|
*-------------------------------------------------0----|
-------------------------------------------------------|


                                                 
-----------------------------------------------||
----------------------------------------------*||
----------------------------3------------------||
--1----1-1-1--1-1-1--1-1-1-----------3--------*||
-----------------------------------------------||


                                                  
-------------------------------------------------|
*------------------------------------------------|
--------------------------0----0--0--0--0--0--0--|
*--1----1--1--1--1--1--1-------------------------|
-------------------------------------------------|


                                                                             
-------------------------------------------------||-------------------------|
------------------------------------------------*||-------------------------|
-------------------------------------------------||-------------------------|
--1----1--1--1--1--1--1--0----0--0--0--0--0--0--*||--1----1--1--1--1--1--1--|
-------------------------------------------------||-------------------------|


                                             
|-------------------------------------------|
|*------------------------------------------|
|-------------------------------------------|
|*--0----0----0----0----0----0----0----0----|
|-------------------------------------------|


                                             
-------------------------------------------||
------------0-------------------0---------*||
-------------------------------------------||
--0----0---------0----0----0---------0----*||
-------------------------------------------||


                                           
------------------------------------------|
------------------------------------------|
--0----0----0----0----0----0----0----0----|
------------------------------------------|
------------------------------------------|


                                           
------------0-------------------0---------|
------------------------------------------|
--0----0---------0----0----0---------0----|
------------------------------------------|
------------------------------------------|


                                           
------------------------------------------|
------------------------------------------|
--0----0----0----0----0----0----0----0----|
------------------------------------------|
------------------------------------------|


                                           
------------0-------------------0---------|
------------------------------------------|
--0----0---------0----0----0---------0----|
------------------------------------------|
------------------------------------------|


                                                     
|---------------------------------------------------|
|*--------------------------------------------------|
|---------------------------------------------------|
|*--0--0--0--0--0--0--0--0--0--0--0--0--0--0--0--0--|
|---------------------------------------------------|


                                                     
---------------------------------------------------||
--------------------------------------------------*||
---------------------------------------------------||
--0--0--0--0--0--0--0--0--0--0--0--0--0--0--0--0--*||
---------------------------------------------------||


                                             
--------------------------------------------|
--------------0-----------------------------|
-----------------------------------2--------|
--0--0--0--0-----------0--0--0--0-----------|
--------------------------------------------|


                                                
|----------------------------------------------|
|*---------------------------------0--2--3--2--|
|---0--------0---------------0--3--------------|
|*--------------0----1----3--------------------|
|----------------------------------------------|


                                             
-------------------------------------------||
--0----------0--0-------------------------*||
-------------------------------------------||
-------------------0--3------1------1--1--*||
-------------------------------------------||


                                           
------------------------------------------|
--0----------0--0-------------------------|
------------------------------------------|
-------------------0--1------3------3--3--|
------------------------------------------|


                                               
----------------------------------------------|
----------------------------------------------|
----------------------------------------------|
--1----1--3----3--3--3--0----0--1----1--1--1--|
----------------------------------------------|


                                           
-----------------------------------------||
-----------------------------------------||
--3-------------0------0--0--0--0--------||
---------3-------------------------------||
-----------------------------------------||

| /  slide up
| \  slide down
| h  hammer-on
| p  pull-off
| ~  vibrato
| +  harmonic
| x  Mute note
===============================================================================
Comments