In Flames - Jotun Chords & Tabs

 

Jotun Chords & Tabs

In Flames Chords & Tabs

Version: 4 Type: Bass Tab 0 ratings
1 star 2 stars 3 stars 4 stars 5 stars
comments

Jotun Bass Tab

   
#----------------------------------PLEASE NOTE---------------------------------#
#This file is the author's own work and represents their interpretation of the #
#song. You may only use this file for private study, scholarship, or research. #
#------------------------------------------------------------------------------#

              	       IN FLAMES - JOTUN (BASS)
                       From the Album WHORACLE
		     Copyright 1997 NUCLEAR BLAST
                     Version 1.0 - DECEMBER 2001

Transcribed by: Christian Andolf

For Questions, Comments, Newest Version, or Corrections contact
Christian Andolf: at christian.andolf@home.se

 .  - palm mute          /  - slide up to
 \  - slide down to      ~  - vibrato
 h  - hammer on          b  - bend
 p  - pull off            Suffixes for bend
                          ph - pinch harmonic
                           f - full bend    h - half bend
*  - see comment           r - release      t - tap bend
X  - percussion mute       ~ - vibrato bend
@  - slight palm mute     () - ghost note, sustained note

Tune Bass to C (C, F, A#, D#)

Thanx to the guys whose tabs got me a far way:	Jotun_138 (astrozombie138@hotmail.com)
						Andreas Norberg (ante.norberg@telia.com)

Intro/Outro (0:00)
|-------------------------------------------|
|-------------------------------------------|
|--7--7------------5-5---7--7-------5-5-5~--|
|-------8-8---5--5------------8-8-----------| x2

Ending (0:13)
|--------------------------------|
|--------------------------------|
|--------0--2--3~----3--3-5------|
|--0--3----------------------0~--|

Verse I (0:21)
|---------------------------------------|
|---------------------------------------|
|-----------------------------0--3--2~--|
|--0--0-0-00-7--7-7-77--0--3------------| x2
[ Tab from: http://www.guitartabs.cc/tabs/i/in_flames/jotun_btab_ver_4.html ]
Verse II (0:34)
|--------------------------------------------------|
|--------------------------------------------------|
|-----------------------------------------0--3--2~-|
|-0000--------0000----00000000------0--3-----------| x2
  ....	      ....    ........

Verse I x2 (0:46)

Chorus (0:59)
|--------------------------------------------|
|--------------------------------------------|
|--7-7-------5-5-------------5-55--3-3-7-77--|
|------7-77------5-55----3-3-----------------| x2

Bridge (1:12)
|----------------------------------------------------|
|-----------5-4-0--2---------------------------------|
|-7-7--5-7-----------3-2---7-7--5-7----------3-3-5-5-|
|------------------------------------0-0-0-0---------| x2
  . .  . .		   . .  . .

(1:25)
|---------------------------------------------------|
|-5-5--3-5-----------------5-5--3-5-----------------|
|---------------------------------------------------|
|----------3-3-3-3-3-3-3-3----------3-3-3-3-3-3-3-3-| x2
  . .  . .		   . .  . .

(1:38)
|-----------------------------------------------------|
|------------5-4-0--2---------------------------------|
|--7-7--5-7-----------3-2---7-7--5-7------------------|
|-------------------------------------0-0-0-0-0-0-0-0-| x2
   . .  . .		    . .  . .

Verse I x2 (1:50)
Verse II x2 (2:03)
Verse I x2 (2:16)
Chorus x4 (2:29)

Interlude (2:55)
|------------------------------------------------------------------|
|------------------------------------------------------------------|
|-------------------------------------------------5-555-555-555-55-|
|-0-000-000-000-003-333-333-333-337-777-777-777-77-----------------|

|-----------------------------------------------------------|
|-----------------------------------------------------------|
|-----------------------------------------------------------|
|-0-000-000-000-003-333-333-333-337-777-777-777-778--8~--8~-|

Chorus x2 (3:07)
Outro x2 (3:20)
Ending (3:33)
Comments