In Flames - Evil In A Closet Solo Chords & Tabs

 

Evil In A Closet Solo Chords & Tabs

In Flames Chords & Tabs

Version: 1 Type: Tab 0 ratings
1 star 2 stars 3 stars 4 stars 5 stars
comments

Evil In A Closet Solo Tab

Band: In Flames
Album: Soundtrack to your Escape
Song: Evil in a Closet
Length: Solo 
Copyright (c) Nuclear Blast Records - 2004
Version 1.0 - Wednesday August 11th, 2004
Transcribed By: Rob Fitzgerald
 Email: car_crazy33@hotmail.com


Legend:

~          vibrato             /or       slide up or down
h          hammer on       p          pull off


[ Tab from: http://www.guitartabs.cc/tabs/i/in_flames/evil_in_a_closet_solo_tab.html ]
E---------------------------------------------------------------------------------------------------------------------------------
B---------------------------------------------------------------------------------------------------------------------------------
G------------14~~~-------14h15p14--------------------------------------------------------------------------------------
D---13~~~---------13--------------------17---15p13h1512----9--7---12p10h12----13----15----17--15----
A---------------------------------------------------------------------------------------------------------------------------------
E----------------------------------------------------------------------------------------------------------------------------------


E-----------------------------------------------------------------------------------------------------------------------------------------------
B------------------------------------------------------------------------------------------------------------------------------------15~~---
G------------14~~~-------14h15p14---18---16---14---------14---------18---16---1820---14--------16---18-------------
D---13~~~----------13-----------------------------------------15-----15----------------------------------15--------------------------
A-----------------------------------------------------------------------------------------------------------------------------------------------
E-----------------------------------------------------------------------------------------------------------------------------------------------
Comments