In Flames - Everything Counts Chords & Tabs

 

Everything Counts Chords & Tabs

In Flames Chords & Tabs

Version: 1 Type: Bass Tab 0 ratings
1 star 2 stars 3 stars 4 stars 5 stars
comments

Everything Counts Bass Tab

                        IN FLAMES - EVERYTHING COUNTS
                           From the Album WHORACLE
                        Copyright 1997 Nuclear Blast
                            Version 1 - May 1998

Transcribed by: Mathias Wallin
For questions, comments, corrections or newest version please contact Mathias
Wallin at mathias.wallin@kramnet.com

This tab made possible by an Elite Member of  s Death Tab!!!
Check out 's web page, with more trancriptions on it:
               

. - palm mute     ~ - let ring


Tuning: C (drop every string down two steps)


Intro - 4 times

|------------------|
|------------------|
|------------------|
|-0-0-0-0-00-00-00-|
  . . . . .. .. ..

Riff A - 4 times

|-----------------------|
|-----------------------|
|---------------5-5-3-3-|
|-0-00-00-00-00---------|
  . .. .. .. ..

Riff B (Verse Riff) - 1 time

|-----------------------------------------------------------------------|
|-----------------------------------------------------------------------|
|--------7~--------7~--------7~--------5~--------5~--------3~--------3~-|
|-00-0-0----00-0-0----00-0-0----77-7-7----77-7-7----55-5-5----55-5-5----|
  .. . .    .. . .    .. . .    .. . .    .. . .    .. . .    .. . .   
[ Tab from: http://www.guitartabs.cc/tabs/i/in_flames/everything_counts_btab.html ]
Riff B continued:

|---------------------|
|---------------------|
|--------5~--------5~-|
|-77-7-7----77-7-7----|
  .. . .    .. . .

Riff C (Prechorus) - 1 time

|-----------------------------|
|-----------------------------|
|-77777777--------77777777-0~-|
|---------77777777------------|

Riff D (Chorus 1) - 2 times

|--------------------------------------------------|
|-------------------222222-------------------------|
|-------555555333333------------555555333333-------|
|-333333------------------333333------------555555-|

Repeat Riff A 1 time

Riff E (Chorus 2) 
|--------------------------|
|--------------------------|
|-------333333555555666666-|
|-555555-------------------|

Repeat Riff A 4 times
Repeat Riff B 1 time
Repeat Riff C 1 time
Repeat Riff D 2 times
Repeat Riff A 1 time
Repeat Riff E 1 time

Bass "solo"

|-------------------------|
|-------------------------|
|-6-6-6-------5-5-5-7-7-7-|
|-------7-7-7-------------|
        . . .       . . .

Repeat Riff E 1 time
Repeat Riff A 4 times

Bass for solo - 2 times

|----------------------------------|
|----------------------------------|
|-----5-5-3-3-0-0------5-5-7-7-3-3-|
|-3-3--------------3-3-------------|

Repeat Riff D 2 times
Repeat Intro 4 times
Comments