In Flames - Dead Eternity Chords & Tabs

 

Dead Eternity Chords & Tabs

In Flames Chords & Tabs

Version: 1 Type: Tab 0 ratings
1 star 2 stars 3 stars 4 stars 5 stars
comments

Dead Eternity Tab

   
Author/Artist: In Flames
Title: Dead Eternity
Album: THE JESTER RACE
Transcribed by: Black Noise
Email: blacknoise@yahoo.co.jp

Ver. 1.0 (00/04/02)

記号の説明
        h : ハンマリング        p : プリング
        g : グリス              s : スライド
        c,hc,1hc : チョーキング

マルチgbクの場合A以下の順に並んでるつもりでしゅb

2本 F リズム左 か リーh      3本 F リーh左        4本 F リーh左
        リズムE    リズム              リーhE                リーhE
                                        リズム                  リズム左
                                                                リズムE


Tuning : 2 down ( 6: C )


*** time - 0:00
Part_A
  4 times Repeat
#||---------------------------------------|--------------------------------------||#
#||---------------------------------------|--------------------------------------||#
#||o---------------5----------------------|---------------5-----------------5---o||#
#||o--5---7----8--------8---7----5---7----|------7----8------------7----8-------o||#
#||---------------------------------------|--6-----------------8-----------------||#
#||---------------------------------------|--------------------------------------||#
 ||   1        2        3        4        |  1        2        3        4        ||
 ||                                       |                                      ||
 ||                                       |                                      ||
#||---------------------------------------|--------------------------------------||#
#||---------------------------------------|--------------------------------------||#
#||o---------------8----------------------|---------------8-------------8---10--o||#
#||o--8---10---12-------12--10---8--10----|--8---10---12-------10--12-----------o||#
#||---------------------------------------|--------------------------------------||#
#||---------------------------------------|--------------------------------------||#
      1        2        3        4           1        2        3        4    (End of Part_A)




*** time - 0:13
Part_b
#|--------------------------------------|-------------------------------------|
#|--------------------------------------|-------------------------------------|
#|--------------------------------------|-------------------------------------|
#|--12-----------10------------8--------|-------------------------------------|
#|--------------------------------------|--12-----------10------------8-------|
#|--------------------------------------|-------------------------------------|
 |  1        2        3        4        |  1        2        3        4       |
 |                                      |                                     |
 |                                      |                                     |
#|--------------------------------------|-------------------------------------|
#|--------------------------------------|-------------------------------------|
#|--------------------------------------|-------------------------------------|
#|--12-----------10------------8--------|-------------------------------------|
#|--------------------------------------|--12-----------10------------8-------|
#|--------------------------------------|-------------------------------------|
 |  1        2        3        4        |  1        2        3        4       |
 |                                      |                                     |
 |                                      |                                     |
#|--------------------------------------|-------------------------------------|
#|--------------------------------------|-------------------------------------|
#|--------------------------------------|-------------------------------------|
#|--------------------------------------|-------------------------------------|
#|--5------------5-------------5--------|--5------------5-------------5-------|
#|--3--------3---3--------3----3--------|--3--------3---3--------3----3-------|
 |  1        2        3        4        |  1        2        3        4       |
 |                                      |                                     |
 |                                      |                                     |
#|--------------------------------------|-------------------------------------|
#|--------------------------------------|-------------------------------------|
#|--------------------------------------|-------------------------------------|
#|--------------------------------------|-------------------------------------|
#|--5------------5-------------5--------|--5------------5-------------5-------|
#|--3--------3---3--------3----3--------|--3--------3---3--------3----3-------|
    1        2        3        4           1        2        3        4


|--------------------------------------|-------------------------------------|
|--------------------------------------|-------------------------------------|
|--------------------------------------|-------------------------------------|
|--12-----------10------------8--------|--13-----------12------------10------|
|--------------------------------------|-------------------------------------|
|--------------------------------------|-------------------------------------|
|  1        2        3        4        |  1        2        3        4       |
|                                      |                                     |
|                                      |                                     |
|--------------------------------------|-------------------------------------|
|--------------------------------------|-------------------------------------|
|--------------------------------------|-------------------------------------|
|--12-----------10------------8--------|--10-----------8-------------7-------|
|--------------------------------------|-------------------------------------|
|--------------------------------------|-------------------------------------|
|  1        2        3        4        |  1        2        3        4       |
|                                      |                                     |
|                                      |                                     |
|--------------------------------------|-------------------------------------|
|--------------------------------------|-------------------------------------|
|--------------------------------------|-------------------------------------|
|--8------------8-------------8--------|--5------------5-------------5-------|
|--6--------6---6--------6----6--------|--3--------3---3--------3----3-------|
|--------------------------------------|-------------------------------------|
|  1        2        3        4        |  1        2        3        4       |
|                                      |                                     |
|                                      |                                     |
|--------------------------------------|-------------------------------------|
|--------------------------------------|-------------------------------------|
|--------------------------------------|-------------------------------------|
|--8-----------------------------------|--5----------------------------------|
|--6-----------------------------------|--3----------------------------------|
|--------------------------------------|-------------------------------------|
   1        2        3        4           1        2        3        4


|--------------------------------------|-------------------------------------|
|--------------------------------------|-------------------------------------|
|--------------------------------------|-------------------------------------|
|--12-----------10------------8--------|-------------------------------------|
|--------------------------------------|--12-----------10------------8-------|
|--------------------------------------|-------------------------------------|
|  1        2        3        4        |  1        2        3        4       |
|                                      |                                     |
|                                      |                                     |
|--------------------------------------|-------------------------------------|
|--------------------------------------|-------------------------------------|
|--------------------------------------|-------------------------------------|
|--12-----------10------------8--------|-------------------------------------|
|--------------------------------------|--12-----------10------------8-------|
|--------------------------------------|-------------------------------------|
|  1        2        3        4        |  1        2        3        4       |
|                                      |                                     |
|                                      |                                     |
|--------------------------------------|-------------------------------------|
|--------------------------------------|-------------------------------------|
|--------------------------------------|-------------------------------------|
|--------------------------------------|-------------------------------------|
|--5------------5-------------5--------|--5------------5-------------5-------|
|--3--------3---3--------3----3--------|--3--------3---3--------3----3-------|
|  1        2        3        4        |  1        2        3        4       |
|                                      |                                     |
|                                      |                                     |
|--------------------------------------|-------------------------------------|
|--------------------------------------|-------------------------------------|
|--------------------------------------|-------------------------------------|
|--------------------------------------|-------------------------------------|
|--5------------5-------------5--------|--5------------5-------------5-------|
|--3---3----3---3----3---3----3---3----|--3---3----3---3----3---3----3---3---|
   1        2        3        4           1        2        3        4


|--------------------------------------|-------------------------------------|
|--------------------------------------|-------------------------------------|
|--------------------------------------|-------------------------------------|
|--12-----------10------------8--------|--8---10---12--10-------8----7-------|
|--------------------------------------|-------------------------------------|
|--------------------------------------|-------------------------------------|
|  1        2        3        4        |  1        2        3        4       |
|                                      |                                     |
|                                      |                                     |
|--------------------------------------|-------------------------------------|
|--------------------------------------|-------------------------------------|
|--------------------------------------|-------------------------------------|
|--8------------7-------------5--------|--5---7----8---7--------5------------|
|--------------------------------------|-----------------------------8-------|
|--------------------------------------|-------------------------------------|
|  1        2        3        4        |  1        2        3        4       |
|                                      |                                     |
|                                      |                                     |
|--------------------------------------|-------------------------------------|
|--------------------------------------|-------------------------------------|
|--------------------------------------|-------------------------------------|
|--8------------8-------------8--------|-------------------------------------|
|--6--------6---6--------6----6--------|--5------------3---------------------|
|--------------------------------------|--3--------3---1---------------------|
|  1        2        3        4        |  1        2        3        4       |
|                                      |                                     |
|                                      |                                     |
|--------------------------------------|-------------------------------------|
|--------------------------------------|-------------------------------------|
|--------------------------------------|-------------------------------------|
|--8-----------------------------------|-------------------------------------|
|--6-----------------------------------|--5------------3---------------------|
|--------------------------------------|--3--------3---1---------------------|
   1        2        3        4           1        2        3        4


|--------------------------------------|-------------------------------------|
|--------------------------------------|-------------------------------------|
|--------------------------------------|-------------------------------------|
|--12-----------10------------8--------|-------------------------------------|
|--------------------------------------|--12-----------10------------8-------|
|--------------------------------------|-------------------------------------|
|  1        2        3        4        |  1        2        3        4       |
|                                      |                                     |
|                                      |                                     |
|--------------------------------------|-------------------------------------|
|--------------------------------------|-------------------------------------|
|--10-----------8-------------7--------|-------------------------------------|
|--------------------------------------|--10-----------8-------------7-------|
|--------------------------------------|-------------------------------------|
|--------------------------------------|-------------------------------------|
|  1        2        3        4        |  1        2        3        4       |
|                                      |                                     |
|                                      |                                     |
|--------------------------------------|-------------------------------------|
|--------------------------------------|-------------------------------------|
|--------------------------------------|-------------------------------------|
|--------------------------------------|-------------------------------------|
|--5------------5-------------5--------|--5------------5-------------5-------|
|--3--------3---3--------3----3--------|--3--------3---3--------3----3-------|
|  1        2        3        4        |  1        2        3        4       |
|                                      |                                     |
|                                      |                                     |
|--------------------------------------|-------------------------------------|
|--------------------------------------|-------------------------------------|
|--------------------------------------|-------------------------------------|
|--------------------------------------|-------------------------------------|
|--5------------5-------------5--------|--5------------5-------------5-------|
|--3--------3---3--------3----3--------|--3--------3---3--------3----3-------|
   1        2        3        4           1        2        3        4


|--------------------------------------|-------------------------------------|
|--------------------------------------|-------------------------------------|
|--------------------------------------|-------------------------------------|
|--12-----------10------------8--------|--13-----------12------------10------|
|--------------------------------------|-------------------------------------|
|--------------------------------------|-------------------------------------|
|  1        2        3        4        |  1        2        3        4       |
|                                      |                                     |
|                                      |                                     |
|--------------------------------------|-------------------------------------|
|--------------------------------------|-------------------------------------|
|--10-----------8-------------7--------|--12-----------10------------8-------|
|--------------------------------------|-------------------------------------|
|--------------------------------------|-------------------------------------|
|--------------------------------------|-------------------------------------|
|  1        2        3        4        |  1        2        3        4       |
|                                      |                                     |
|                                      |                                     |
|--------------------------------------|-------------------------------------|
|--------------------------------------|-------------------------------------|
|--------------------------------------|-------------------------------------|
|--8------------8-------------8--------|--5------------5-------------5-------|
|--6--------6---6--------6----6--------|--3--------3---3--------3----3-------|
|--------------------------------------|-------------------------------------|
|  1        2        3        4        |  1        2        3        4       |
|                                      |                                     |
|                                      |                                     |
|--------------------------------------|-------------------------------------|
|--------------------------------------|-------------------------------------|
|--------------------------------------|-------------------------------------|
|--8------------8-------------8--------|--5------------5-------------5-------|
|--6--------6---6--------6----6--------|--3--------3---3--------3----3-------|
|--------------------------------------|-------------------------------------|
   1        2        3        4           1        2        3        4


|--------------------------------------|-------------------------------------|
|--------------------------------------|-------------------------------------|
|--------------------------------------|-------------------------------------|
|--12-----------10------------8--------|-------------------------------------|
|--------------------------------------|--12-----------10------------8-------|
|--------------------------------------|-------------------------------------|
|  1        2        3        4        |  1        2        3        4       |
|                                      |                                     |
|                                      |                                     |
|--------------------------------------|-------------------------------------|
|--------------------------------------|-------------------------------------|
|--10-----------8-------------7--------|-------------------------------------|
|--------------------------------------|--10-----------8-------------7-------|
|--------------------------------------|-------------------------------------|
|--------------------------------------|-------------------------------------|
|  1        2        3        4        |  1        2        3        4       |
|                                      |                                     |
|                                      |                                     |
|--------------------------------------|-------------------------------------|
|--------------------------------------|-------------------------------------|
|--------------------------------------|-------------------------------------|
|--------------------------------------|-------------------------------------|
|--5------------5-------------5--------|--5------------5-------------5-------|
|--3--------3---3--------3----3--------|--3--------3---3--------3----3-------|
|  1        2        3        4        |  1        2        3        4       |
|                                      |                                     |
|                                      |                                     |
|--------------------------------------|-------------------------------------|
|--------------------------------------|-------------------------------------|
|--------------------------------------|-------------------------------------|
|--------------------------------------|-------------------------------------|
|--5------------5-------------5--------|--5------------5-------------5-------|
|--3--------3---3--------3----3--------|--3--------3---3--------3----3-------|
   1        2        3        4           1        2        3        4


|--------------------------------------|-------------------------------------|-------|#
|--------------------------------------|-------------------------------------|-------|#
|--------------------------------------|-------------------------------------|-------|#
|--12-----------10------------8--------|--8---10---12--10-------8----7-------|--5----|#
|--------------------------------------|-------------------------------------|-------|#
|--------------------------------------|-------------------------------------|-------|#
|  1        2        3        4        |  1        2        3        4       |       |
|                                      |                                     |       |
|                                      |                                     |       |
|--------------------------------------|-------------------------------------|-------|#
|--------------------------------------|-------------------------------------|-------|#
|--------------------------------------|-------------------------------------|-------|#
|--8------------7-------------5--------|--5---7----8---7--------5------------|-------|#
|--------------------------------------|-----------------------------8-------|--7----|#
|--------------------------------------|-------------------------------------|-------|#
|  1        2        3        4        |  1        2        3        4       |       |
|                                      |                                     |       |
|                                      |                                     |       |
|--------------------------------------|-------------------------------------|-------|#
|--------------------------------------|-------------------------------------|-------|#
|--------------------------------------|-------------------------------------|-------|#
|--8------------8-------------8--------|-------------------------------------|-------|#
|--6--------6---6--------6----6--------|--5------------3---------------------|--2----|#
|--------------------------------------|--3--------3---1---------------------|--0----|#
|  1        2        3        4        |  1        2        3        4       |       |
|                                      |                                     |       |
|                                      |                                     |       |
|--------------------------------------|-------------------------------------|-------|#
|--------------------------------------|-------------------------------------|-------|#
|--------------------------------------|-------------------------------------|-------|#
|--8------------8-------------8--------|-------------------------------------|-------|#
|--6--------6---6--------6----6--------|--5------------3---------------------|--2----|#
|--------------------------------------|--3--------3---1---------------------|--0----|#
   1        2        3        4           1        2        3        4         (End of Part_B)




*** time - 0:52
Part_C
  2 times Repeat
#||---------------------------------------|-------------------------------------|
#||---------------------------------------|-------------------------------------|
#||o--------------------------------------|-------------------------------------|
#||o--5--------5---5----5--------4---5----|-------------------------------------|
#||---------------------------------------|--5------------5----5----------------|
#||---------------------------------------|-------------------------------------|
 ||   1        2        3        4        |  1        2        3        4       |
 ||                                       |                                     |
 ||                                       |                                     |
#||---------------------------------------|-------------------------------------|
#||---------------------------------------|-------------------------------------|
#||o--------------------------------------|-------------------------------------|
#||o--9--------9---9----9--------7---9----|--4------------4----4----------------|
#||---------------------------------------|-------------------------------------|
#||---------------------------------------|-------------------------------------|
      1        2        3        4           1        2        3        4


|--------------------------------------|--------------------------------------||
|--------------------------------------|--------------------------------------||
|--------------------------------------|-------------------------------------o||
|--------------------9--------7---9----|--4----------------------------------o||
|--7-----------------------------------|---------------7----7-----------------||
|--------------------------------------|--------------------------------------||
|  1        2        3        4        |  1        2        3        4        ||
|                                      |                                      ||
|                                      |                                      ||
|--------------------------------------|--------------------------------------||
|--------------------------------------|--------------------------------------||
|--------------------------------------|-------------------------------------o||
|--5-----------------------------------|-------------------------------------o||
|--------------------5-----------------|--2------------0----0-----------------||
|--------------------------------------|--------------------------------------||
   1        2        3        4           1        2        3        4    (End of Part_C)




*** time - 1:10
Part_D
  2 times Repeat
#||---------------------------------------|--------------------------------------|
#||---------------------------------------|--------------------------------------|
#||o--------------------------------------|--------------------------------------|
#||o--5-5-5-5--5-5-5-5--5-5-5-5--4-4-5-5--|--------------------------------------|
#||---------------------------------------|--5-5-5-5--5-5-5-5--5-5-5-5--5-5-5-5--|
#||---------------------------------------|--------------------------------------|
 ||   1        2        3        4        |  1        2        3        4        |
 ||                                       |                                      |
 ||                                       |                                      |
#||---------------------------------------|--------------------------------------|
#||---------------------------------------|--------------------------------------|
#||o--------------------------------------|--------------------------------------|
#||o--------------------------------------|--------------------------------------|
#||---------------------------------------|--2-2-2-2--2-2-2-2--2-2-2-2--2-2-2-2--|
#||---0-0-0-0--0-0-0-0--0-0-0-0--0-0-0-0--|--------------------------------------|
      1        2        3        4           1        2        3        4


|--------------------------------------|---------------------------------------||#
|--------------------------------------|---------------------------------------||#
|--------------------------------------|--------------------------------------o||#
|--------------------9-9-9-9--7-7-9-9--|--4-4-4-4--4-4------------------------o||#
|--7-7-7-7--7-7-7-7--------------------|---------------7-7--7-7-7-7--7-7-7-7---||#
|--------------------------------------|---------------------------------------||#
|  1        2        3        4        |  1        2        3        4         ||
|                                      |                                       ||
|                                      |                                       ||
|--------------------------------------|---------------------------------------||#
|--------------------------------------|---------------------------------------||#
|--------------------------------------|--------------------------------------o||#
|--------------------------------------|--------------------------------------o||#
|--3-3-3-3--3-3-3-3--5-5-5-5--5-5-5-5--|--2-2-2-2--2-2-2-2--0-0-0-0--0-0-0-0---||#
|--------------------------------------|---------------------------------------||#
   1        2        3        4           1        2        3        4    (End of Part_D)




*** time - 1:25
Part_E
  2 times Repeat
#||---------------------------------------|--------------------------------------|
#||---------------------------------------|--------------------------------------|
#||o--------------------------------------|--------------------------------------|
#||o--5-5-5-5--5-5-5-5--5-5-5-5--4-4-5-5--|--------------------------------------|
#||---------------------------------------|--5-5-5-5--5-5-5-5--5-5-5-5--5-5-5-5--|
#||---------------------------------------|--------------------------------------|
 ||   1        2        3        4        |  1        2        3        4        |
 ||                                       |                                      |
 ||                                       |                                      |
#||---------------------------------------|--------------------------------------|
#||---------------------------------------|--------------------------------------|
#||o--------------------------------------|--------------------------------------|
#||o--------------------------------------|--4-----------------------------------|
#||---2-----------------------------------|--2-----------------------------------|
#||---0-----------------------------------|--------------------------------------|
      1        2        3        4           1        2        3        4


|--------------------------------------|---------------------------------------||#
|--------------------------------------|---------------------------------------||#
|--------------------------------------|--------------------------------------o||#
|--------------------9-9-9-9--7-7-9-9--|--4-4-4-4--4-4------------------------o||#
|--7-7-7-7--7-7-7-7--------------------|---------------7-7--7-7-7-7--7-7-7-7---||#
|--------------------------------------|---------------------------------------||#
|  1        2        3        4        |  1        2        3        4         ||
|                                      |                                       ||
|                                      |                                       ||
|--------------------------------------|---------------------------------------||#
|--------------------------------------|---------------------------------------||#
|--------------------------------------|--------------------------------------o||#
|--5-----------------7-----------------|--4-----------------2-----------------o||#
|--3-----------------5-----------------|--2-----------------0------------------||#
|--------------------------------------|---------------------------------------||#
   1        2        3        4           1        2        3        4    (End of Part_E)



[ Tab from: http://www.guitartabs.cc/tabs/i/in_flames/dead_eternity_tab.html ]
*** time - 1:39
Part_F
#|----------------------------------------------|#
#|----------------------------------------------|#
#|----------------------------------------------|#
#|-----------4----------------------------------|#
#|--2--------2--------5-5-5-5--4---4------------|#
#|--0-----------------3-3-3-3--2---2------------|#
    1        2        3        4        5    (End of Part_F)




*** time - 1:41
Part_g
  2 times Repeat
#||---------------------------------------|-------------------------------------|
#||---------------------------------------|-------------------------------------|
#||o--------------------------------------|-------------------------------------|
#||o---------------4----5--------5--------|---------------7----9--------9-------|
#||---2--------2---2----3--------3--------|--2--------2---5----7--------7-------|
#||---0--------0--------------------------|--0--------0-------------------------|
 ||   1        2        3        4        |  1        2        3        4       |
 ||                                       |                                     |
 ||                                       |                                     |
#||---------------------------------------|-------------------------------------|
#||---------------------------------------|-------------------------------------|
#||o--------------------------------------|-------------------------------------|
#||o--------------------------------------|--------------------5--------4-------|
#||---2--------2---5----7--------7--------|--2--------2---5---------------------|
#||---0--------0--------------------------|--0--------0-------------------------|
      1        2        3        4           1        2        3        4


|--------------------------------------|--------------------------------------||#
|--------------------------------------|--------------------------------------||#
|--------------------------------------|-------------------------------------o||#
|--------------------------------------|-----------4---5--------4--------4---o||#
|--2--------4---5----7--------7--------|--7--------------------------7--------||#
|--0--------2---3----5--------5--------|--------------------------------------||#
|  1        2        3        4        |  1        2        3        4        ||
|                                      |                                      ||
|                                      |                                      ||
|--------------------------------------|--------------------------------------||#
|--------------------------------------|--------------------------------------||#
|--------------------------------------|-------------------------------------o||#
|--------------------------------------|-------------------------------------o||#
|--2--------2---5----7--------7--------|--3--------5---7--------5----3---5----||#
|--0--------0--------------------------|--------------------------------------||#
   1        2        3        4           1        2        3        4    (End of Part_G)




*** time - 1:55
Part_h
  2 times Repeat
#||--------------------------------------|--------------------------------------|
#||--------------------------------------|--------------------------------------|
#||o-------------------------------------|--------------------------------------|
#||o------------------------11-------12--|--5------------7----------------------|
#||---2------------5h7------9--------10--|--3---3-3--3-3-5----5-5-5-5--5-5------|
#||---0---0-0--0-0------0-0------0-0-----|---------------------------------3-2--|
 ||   1        2        3        4          1        2        3        4
 ||
 ||
#||--------------------------------------|--------------------------------------|
#||--------------------------------------|--------------------------------------|
#||o-------------------------------------|--------------------------------------|
#||o------------------------11-------12--|--5------------7----------------------|
#||---2------------5h7------9--------10--|--3---3-3--3-3-5----5-5-5-5--5-5------|
#||---0---0-0--0-0------0-0------0-0-----|---------------------------------3-2--|
      1        2        3        4          1        2        3        4


|-------------------------------------|-----------------------------------------||#
|-------------------------------------|-------------------------------3---------||#
|-------------------------------------|-----------------------------|=|=|------o||#
|------------------------11-------12--|--5------------7--------9----7h9p7------o||#
|--2------------5h7------9--------10--|--3---3-3--3-3-5----5-5------------9-----||#
|--0---0-0--0-0------0-0------0-0-----|-----------------------------------------||#
   1        2        3        4          1        2        3        4           ||
                                                                                ||
                                                                                ||
|-------------------------------------|-----------------------------------------||#
|-------------------------------------|-------------------------------3---------||#
|-------------------------------------|-----------------------------|=|=|------o||#
|------------------------11-------12--|--5------------7--------5----4h5p4------o||#
|--2------------5h7------9--------10--|--3---3-3--3-3-5----5-5------------5-----||#
|--0---0-0--0-0------0-0------0-0-----|-----------------------------------------||#
   1        2        3        4          1        2        3        4    (End of Part_H)




*** time - 2:09
Play Part_G
  2 times Repeat




*** time - 2:23
Play Part_H
  2 times Repeat




*** time - 2:37
Play Part_D
  2 times Repeat




*** time - 2:51
Part_I
#|--------------------------------------|#
#|--------------------------------------|#
#|--------------------------------------|#
#|-----------4--------------------------|#
#|--2--------2--------5-5-5-5--4-4-4-4--|#
#|--0-----------------3-3-3-3--2-2-2-2--|#
    1        2        3        4    (End of Part_I)



*** time - 2:53
Part_g'
// Part_Gの2回目の3小節まで同じ
// 以下4小節目
|---------------------------------------|#
|---------------------------------------|#
|---------------------------------------|#
|-----------4---5--------4----------4---|#
|--7----------------------------7-------|#
|---------------------------------------|#
|  1        2        3          4       |
|                                       |
|                                       |
|--------------------------3------------|#
|------------------------|=|=|----------|#
|-----------2---4--------2h4p2------2---|#
|--5----------------------------5-------|#
|---------------------------------------|#
|---------------------------------------|#
   1        2        3          4    (End of Part_G')




*** time - 3:07
Part_J
#|--------------------------------------|-------------------------------------|
#|--------------------------------------|-------------------------------------|
#|--------------------------------------|-------------------------------------|
#|---------------6----7--------7--------|---------------7----9--------9-------|
#|--4--------4---4----5--------5--------|--4--------4---5----7--------7-------|
#|--2--------2--------------------------|--2--------2-------------------------|
 |  1        2        3        4        |  1        2        3        4       |
 |                                      |                                     |
 |                                      |                                     |
#|--------------------------------------|-------------------------------------|
#|--------------------------------------|-------------------------------------|
#|--------------------------------------|-------------------------------------|
#|---------------2----4--------4--------|---------------2----7---7----6-------|
#|--4--------4--------------------------|--4--------4-------------------------|
#|--2--------2--------------------------|--2--------2-------------------------|
    1        2        3        4           1        2        3        4


|--------------------------------------|---------------------------------------|
|--------------------------------------|---------------------------------------|
|--------------------------------------|---------------------------------------|
|--------------------------------------|--7---7----7--------9---9------9-------|
|--4--------6---7----9--------9--------|--5---5----5--------7---7------7-------|
|--2--------4---5----7--------7--------|---------------------------------------|
|  1        2        3        4        |  1        2        3          4       |
|                                      |                                       |
|                                      |                                       |
|--------------------------------------|--------------------------3------------|
|--------------------------------------|------------------------|=|=|----------|
|--------------------------------------|--2--------4---6--------4h6p4------4---|
|---------------2----4--------4--------|-------------------------------7-------|
|--4--------4--------------------------|---------------------------------------|
|--2--------2--------------------------|---------------------------------------|
   1        2        3        4           1        2        3          4


|--------------------------------------|-------------------------------------|
|--------------------------------------|-------------------------------------|
|--------------------------------------|-------------------------------------|
|---------------6----7--------7--------|---------------7----9--------9-------|
|--4--------4---4----5--------5--------|--4--------4---5----7--------7-------|
|--2--------2--------------------------|--2--------2-------------------------|
|  1        2        3        4        |  1        2        3        4       |
|                                      |                                     |
|                                      |                                     |
|--------------------------------------|-------------------------------------|
|--------------------------------------|-------------------------------------|
|--------------------------------------|-------------------------------------|
|---------------2----4--------4--------|---------------2----7---7----6-------|
|--4--------4--------------------------|--4--------4-------------------------|
|--2--------2--------------------------|--2--------2-------------------------|
   1        2        3        4           1        2        3        4


|--------------------------------------|---------------------------------------|#
|--------------------------------------|---------------------------------------|#
|--------------------------------------|---------------------------------------|#
|--------------------------------------|--7-----------------9------------------|#
|--4--------6---7----9--------9--------|--5-----------------7------------------|#
|--2--------4---5----7--------7--------|---------------------------------------|#
|  1        2        3        4        |  1        2        3          4       |
|                                      |                                       |
|                                      |                                       |
|--------------------------------------|--------------------------3------------|#
|--------------------------------------|------------------------|=|=|----------|#
|--------------------------------------|--2--------4---6--------4h6p4------4---|#
|---------------2----4--------4--------|-------------------------------7-------|#
|--4--------4--------------------------|---------------------------------------|#
|--2--------2--------------------------|---------------------------------------|#
   1        2        3        4           1        2        3          4    (End of Part_J)




*** time - 3:21
Part_K
  2 times Repeat
#||---------------------------------------|--------------------------------------|
#||---------------------------------------|--------------------------------------|
#||o--------------------------------------|--------------------------------------|
#||o--------------------------------------|--------------------------------------|
#||-------7--------10-------9--------5----|------3--------7--------5--------9----|
#||---0--------0--------0--------0--------|--0--------0--------0--------0--------|
      1        2        3        4           1        2        3        4


|--------------------------------------|--------------------------------------||#
|--------------------------------------|--------------------------------------||#
|--------------------------------------|-------------------------------------o||#
|--------------------------------------|-------------------------------------o||#
|------7--------10-------9--------5----|------3--------7--------5--------3----||#
|--0--------0--------0--------0--------|--0--------0--------0--------0--------||#
   1        2        3        4           1        2        3        4    (End of Part_K)




*** time - 3:35
Part_L
#|--------------------------------------|--------------------------------------|
#|--------------------------------------|---------------10---10-h12---12-------|
#|-----------9---11---11-s12---12-------|-----------12-------------------------|
#|-----g9-------------------------------|-----g9-------------------------------|
#|--------------------------------------|--------------------------------------|
#|--------------------------------------|--------------------------------------|
 |  1        2        3        4        |  1        2        3        4        |
 |                                      |                                      |
 |                                      |                                      |
#|--------------------------------------|--------------------------------------|
#|--------------------------------------|--------------------------------------|
#|--------------------------------------|--------------------------------------|
#|--9------------9-------------9--------|--10-----------10------------10-------|
#|--7------------7-------------7--------|--7------------7-------------7--------|
#|------0----0--------0---0--------0----|------0----0--------0---0--------0----|
    1        2        3        4           1        2        3        4


|--------------------------------------|--12--10h12p10----------------------------|
|--------------------------------------|------|==|==|--10--8--------10---8--------|
|-----------9---11---11-s12---11--9----|---------3--------------------------------|
|-----g9-------------------------------|------------------------------------------|
|--------------------------------------|------------------------------------------|
|--------------------------------------|------------------------------------------|
|  1        2        3        4        |  1            2        3        4        |
|                                      |                                          |
|                                      |                                          |
|--------------------------------------|------------------------------------------|
|--------------------------------------|------------------------------------------|
|--------------------------------------|---------------10-----------10------------|
|--9------------9-------------9--------|------10----------------10-------10-------|
|--7------------7-------------7--------|--8----------------8----------------------|
|------0----0--------0---0--------0----|------------------------------------------|
   1        2        3        4           1            2        3        4


|--------------------------------------|--------------------------------------|
|--------------------------------------|---------3----------------------------|
|-----------9---11---11-s12---11-------|---|-----|-----|----------------------|
|-----g9--------------------------9----|-9h10----9-----7----7h9---------------|
|--------------------------------------|--------------------------------------|
|--------------------------------------|--------------------------------------|
|  1        2        3        4        |  1        2        3        4        |
|                                      |                                      |
|                                      |                                      |
|--------------------------------------|--------------------------------------|
|--------------------------------------|--------------------------------------|
|--------------------------------------|--------------------------------------|
|--9------------9-------------9--------|--10-----------10------------10-------|
|--7------------7-------------7--------|--7------------7-------------7--------|
|------0----0--------0---0--------0----|------0----0--------0---0--------0----|
   1        2        3        4           1        2        3        4


|-----------------------------12--14---|--14c----d-------------------------------|----------|#
|------------------------12------------|---------------12---13---12h13p12----10--|-10h12----|#
|-----------9---11--s12----------------|--|------|-----|----|-------|--------|---|----------|#
|------g9------------------------------|---------3------------------3------------|----------|#
|--------------------------------------|-----------------------------------------|----------|#
|--------------------------------------|-----------------------------------------|----------|#
|  1        2        3        4        |  1        2        3        4           |
|                                      |                                         |
|                                      |                                         |
|--------------------------------------|-----------------------------------------|#
|--------------------------------------|-----------------------------------------|#
|--------------------------------------|-----------10-----------10---------------|#
|--9------------9-------------9--------|------10------------10-------10----------|#
|--7------------7-------------7--------|--8------------8-------------------------|#
|------0----0--------0---0--------0----|-----------------------------------------|#
   1        2        3        4           1        2        3        4    (End of Part_L)




*** time - 3:48
Play Part_K
  2 times Repeat




*** time - 4:02
Part_M
#|--------------------------------------|--------------------------------------|
#|--------------------------------------|--------------------------------------|
#|--------------------------------------|--------------------------------------|
#|--------------------------------------|--------------------------------------|
#|--2--------------------------2---2----|--2--------------------------2--------|
#|--0--------------------------0---0----|--0--------------------------0--------|
 |  1        2        3        4        |  1        2        3        4        |
 |                                      |                                      |
 |                                      |                                      |
#|--------------------------------------|--------------------------------------|
#|--------------------------------------|--------------------------------------|
#|--------------------------------------|--------------------------------------|
#|--------------------------------------|--------------------------------------|
#|--2--------------------------2---2----|--2--------------------------2--------|
#|--0--------------------------0---0----|--0--------------------------0--------|
    1        2        3        4           1        2        3        4


|--------------------------------------|--------------------------------------|
|--------------------------------------|--------------------------------------|
|--------------------------------------|--------------------------------------|
|--------------------------------------|--------------------------------------|
|--2--------------------------2---2----|--2--------------------------2--------|
|--0--------------------------0---0----|--0--------------------------0--------|
|  1        2        3        4        |  1        2        3        4        |
|                                      |                                      |
|                                      |                                      |
|--------------------------------------|--------------------------------------|
|--------------------------------------|--------------------------------------|
|--------------------------------------|------------------------------__3__---|
|--------------------------------------|-----------------------------|--|--|--|
|--2--------------------------2---2----|--2--------------------------2--------|
|--0--------------------------0---0----|--0--------------------------0--0--0--|
   1        2        3        4           1        2        3        4


|-----------------------------|#
|-----------------------------|#
|---__3__---------------------|#
|--|--|--|--------------------|#
|--2--2--2--------------------|#
|--0--0--0--------------------|#
|  1        2        3        |
|                             |
|                             |
|-----------------------------|#
|-----------------------------|#
|---__3__----__3__----__3__---|#
|--|--|--|--|--|--|--|--|--|--|#
|--7--9--10-7--------7--10-9--|#
|--------------0--0-----------|#
   1        2        3    (End of Part_M)




*** time - 4:11
Part_N
// 以降3連符省略(^^;
#|---------------------------------------|---------------------------------------------|
#|-----------------------------10----10--|--12-13-10-12-10h12p10----10-----------------|
#|--9-----9--11----11-12----12-----------|-----------------------12----12-11-9--11-12--|
#|-----9--------9--------9--------9------|---------------------------------------------|
#|---------------------------------------|---------------------------------------------|
#|---------------------------------------|---------------------------------------------|
 |  1        2        3        4         |  1        2              3        4         |
 |                                       |                                             |
 |                                       |                                             |
#|---------------------------------------|---------------------------------------------|
#|-----------------------------10----10--|--12-13-10-12-10h12p10----10-----------------|
#|--9-----9--11----11-12----12-----------|-----------------------12----12-11-9--11-12--|
#|-----9--------9--------9--------9------|---------------------------------------------|
#|---------------------------------------|---------------------------------------------|
#|---------------------------------------|---------------------------------------------|
 |  1        2        3        4         |  1        2              3        4         |
 |                                       |                                             |
 |                                       |                                             |
#|---------------------------------------|---------------------------------------------|
#|---------------------------------------|---------------------------------------------|
#|---------------------------------------|---------------------------------------------|
#|---------------------------------------|--9--------9-----------------9--7------------|
#|--7--------7--10-9--7--------7--9--10--|--------------10-9--------7--------10-9--7---|
#|-----0--0--------------0--0------------|-----0--0------------------------------------|
    1        2        3        4            1        2              3        4


|---------------------------------------|---------------------------------------------|
|---------------------------------------|---------------------------------------------|
|---------------------------------------|--------5--7--5-h7-p5-----5------------------|
|--7--------7--8--5--7--------7--8--5---|--7--8-----------------8-----8--7--5--7--8---|
|---------------------------------------|---------------------------------------------|
|---------------------------------------|---------------------------------------------|
|  1        2        3        4         |  1        2              3        4         |
|                                       |                                             |
|                                       |                                             |
|---------------------------------------|---------------------------------------------|
|---------------------------------------|---------------------------------------------|
|---------------------------------------|--------5--7--5-h7-p5-----5------------------|
|--7--------7--8--5--7--------7--8--5---|--7--8-----------------8-----8--7--5--7--8---|
|---------------------------------------|---------------------------------------------|
|---------------------------------------|---------------------------------------------|
|  1        2        3        4         |  1        2              3        4         |
|                                       |                                             |
|                                       |                                             |
|---------------------------------------|---------------------------------------------|
|---------------------------------------|---------------------------------------------|
|---------------------------------------|---------------------------------------------|
|-----------------5-----------------5---|-----------------7--------8--7---------------|
|--8--5--5--0--8-----8--5--5--0--8------|--8--5--5--0--8-----------------8--10-8-10---|
|---------------------------------------|---------------------------------------------|
   1        2        3        4            1        2              3        4


|---------------------------------------|---------------------------------------------|
|-----------------------------10----10--|--12-13-10-12-10h12p10----10-----------------|
|--9-----9--11----11-12----12-----------|-----------------------12----12-11-9--11-12--|
|-----9--------9--------9--------9------|---------------------------------------------|
|---------------------------------------|---------------------------------------------|
|---------------------------------------|---------------------------------------------|
|  1        2        3        4         |  1        2              3        4         |
|                                       |                                             |
|                                       |                                             |
|---------------------------------------|-----12--------------------------------------|
|-----------------------------13----13--|--15----13-15-13h15p13-12-13-12----------12--|
|--12----12-14----14-16----16-----------|--------------------------------14-12-14-----|
|-----12-------12-------12-------12-----|---------------------------------------------|
|---------------------------------------|---------------------------------------------|
|---------------------------------------|---------------------------------------------|
|  1        2        3        4         |  1        2              3        4         |
|                                       |                                             |
|                                       |                                             |
|---------------------------------------|---------------------------------------------|
|---------------------------------------|---------------------------------------------|
|---------------------------------------|---------------------------------------------|
|---------------------------------------|--9--------9-----------------9--7------------|
|--7--------7--10-9--7--------7--9--10--|--------------10-9--------7--------10-9--7---|
|-----0--0--------------0--0------------|-----0--0------------------------------------|
   1        2        3        4            1        2              3        4


|---------------------------------------|---------------------------------------------|#
|---------------------------------------|---------------------------------------------|#
|---------------------------------------|--------5--7--5-h7-p5-----5------------------|#
|--7--------7--8--5--7--------7--8--5---|--7--8-----------------8-----8--7--5--7--8---|#
|---------------------------------------|---------------------------------------------|#
|---------------------------------------|---------------------------------------------|#
|  1        2        3        4         |  1        2              3        4         |
|                                       |                                             |
|                                       |                                             |
|---------------------------------------|---------------------------------------------|#
|---------------------------------------|--------13-15-13h15p13----13-----------------|#
|--14-------14-15-12-14-------14-15-12--|--14-15----------------15----15-14-12-14-15--|#
|---------------------------------------|---------------------------------------------|#
|---------------------------------------|---------------------------------------------|#
|---------------------------------------|---------------------------------------------|#
|  1        2        3        4         |  1        2              3        4         |
|                                       |                                             |
|                                       |                                             |
|---------------------------------------|---------------------------------------------|#
|---------------------------------------|---------------------------------------------|#
|---------------------------------------|---------------------------------------------|#
|-----------------5-----------------5---|-----------------7--------8--7---------------|#
|--8--5--5--0--8-----8--5--5--0--8------|--8--5--5--0--8-----------------8--10-8--10--|#
|---------------------------------------|---------------------------------------------|#
   1        2        3        4            1        2              3        4    (End of Part_N)




*** time - 4:27
Part_O
  2 times Repeat
#||----------------------------------------|---------------------------------------|
#||----------------------------------------|---------------------------------------|
#||o---------------------------------------|---------------------------------------|
#||o---------------------------------------|--9--------9-----------9--7------------|
#||---7--------7--10-9--7--------7--9--10--|--------------10-9--7--------10-9--7---|
#||------0--0--------------0--0------------|-----0--0------------------------------|
      1        2        3        4            1        2        3        4


|---------------------------------------|----------------------------------------||#
|---------------------------------------|----------------------------------------||#
|---------------------------------------|---------------------------------------o||#
|-----------------7-----------------7---|-----------------7--8--7---------------o||#
|--8--5--5--0--8-----8--5--5--0--8------|--8--5--5--0--8-----------8--10-8--10---||#
|---------------------------------------|----------------------------------------||#
   1        2        3        4            1        2        3        4    (End of Part_O)




*** time - 4:44
Part_P
  2 time Repeat
#||-------------------------------------------------------|
#||-------------------------------------------------------|
#||o------------------------------------------------------|
#||o--5-5-5-5-5-5--5---4---5------------------------------|
#||-----------------------------5-5-5-5-5-5--5-5-5-5-5-5--|
#||-------------------------------------------------------|
 ||   1            2            3            4            |
 ||                                                       |
 ||                                                       |
#||-------------------------------------------------------|
#||-------------------------------------------------------|
#||o-------------------------------------------
Comments