In Flames - Crawl Through Knives Chords & Tabs

 

Crawl Through Knives Chords & Tabs

In Flames Chords & Tabs

Version: 2 Type: Tab

Crawl Through Knives Tab

   
In Flames - Crawl through knives (Intro)
Tabbed by: Berth


     Q    E  E  E  E  E  E     E  E  E  E  E  S  S  S E   
 C||-------------------------|----------------------------|
 G||-------------------------|----------------------------|
D#||-------------------------|----------------------------|
A#||-------------------------|-----5-----7-----5h-7p-5----|
 F||--5~------5-----7-----8--|-------------------------8--|
A#||-------0-----0-----0-----|--0-----0-----0-------------|

[ Tab from: http://www.guitartabs.cc/tabs/i/in_flames/crawl_through_knives_tab_ver_2.html ]
  Q    Q     Q    E      Q     E   E  Q    E  E  E  
---------------------|------------------------------|
---------------------|------------------------------|
---------------------|------------------------------|
------------10----8--|--10----10--10--5----5--5--0--|
-------8----------8--|--10----10--10--5----5--5--0--|
--8---------------8--|--10----10--10--5----5--5--0--|


  Q    E  E  E  E  E  E     E  E  E  E  E  S  S  S E   
-------------------------|----------------------------|
-------------------------|----------------------------|
-------------------------|----------------------------|
-------------------------|-----5-----7-----5h-7p-5----|
--5~------5-----7-----8--|-------------------------8--|
-------0-----0-----0-----|--0-----0-----0-------------|


  Q    Q    Q    E  E     Q    E  E  Q    E  E  E   
-----------------------|---------------------------|
-----------------------|---------------------------|
-----------------------|---------------------------|
--8----8----3----3--3--|--5----5--5--7----7--7--0--|
--8----8----3----3--3--|--5----5--5--7----7--7--0--|
--8----8----3----3--3--|--5----5--5--7----7--7--0--|