In Flames - Come Clarity Chords & Tabs

 

Come Clarity Chords & Tabs

In Flames Chords & Tabs

Version: 3 Type: Tab

Come Clarity Tab

   
tuning: C G Eb Bb F C

Intro:

riff1a:
|-------0--------------1p-0-----------------------------------0h1----|
|-----3----3---------3------3---------1-----1---------------3--------|
|---2--------2-----3----------3-----0-----0---0-------0---2----------|
|-0------------0-0--------------0-3-----2-------2---0---0------------|
|-------------------------------------------------3------------------|
|--------------------------------------------------------------------|

riff1b:
|-------0--------------1p-0-------------------------------------1----|
|-----3----3---------3------3---------1-----1-----------------1------|
|---2--------2-----3----------3-----0-----0---0-------0-----3--------|
|-0------------0-0--------------0-3-----2-------2---0-----3----------|
|-------------------------------------------------3-----1------------|
|--------------------------------------------------------------------|

repeat riff1

riff2a:

|-------------------------------------------------------------|
|-------------------------------------------------------------|
|-7-------10--9~---7~-------7-------------7----7-9-7-9/10-----|
|----7~------------------10----10-8~--------10----------------|
|-------------------------------------------------------------|
|-------------------------------------------------------------|

riff2b:
[ Tab from: http://www.guitartabs.cc/tabs/i/in_flames/come_clarity_tab_ver_3.html ]
|-----------------------------------------------------------------|
|---------------------------------------------8-10-11~-10-8-------|
|-7-------10--9~---7~-------7-9-10~-9-7---------------------10----|
|----7~------------------10----------------10---------------------|
|-----------------------------------------------------------------|
|-----------------------------------------------------------------|

repeat riff1

riff3

|----------------------------------------------------------------------|
|-5-----5-----5---5-----5-----5/6------6------6------5------5------5---|
|---7-----7-----7---7-----7----------7------7---7------7------7------7-|
|-----7-----7---------7-----7------8------8-------8------8------8------|
|----------------------------------------------------------------------|
|----------------------------------------------------------------------|

Chorus:

|-----------------------------------------------------------------|
|-----------------------------------------------------------------|
|---7-7-7-7-7-7-7-7-7-7---7-7-7-7-7---10-10-10-10-10--------------|
|---7-7-7-7-7-7-7-7-7-7---8-8-8-8-8---10-10-10-10-10--------------|
|---5-5-5-5-5-5-5-5-5-5---5-5-5-5-5----8--8--8--8--8--------------|
|-----------------------------------------------------------------|


|-----------------------------------------------------------------|
|-----------------------------------------------------------------|
|---5-5-5-5-5-5-5-5-5-5----------------3-3-3-3-3-3----------------|
|---5-5-5-5-5-5-5-5-5-5---5-5-5-5-5----3-3-3-3-3-3----------------|
|---3-3-3-3-3-3-3-3-3-3---5-5-5-5-5----1-1-1-1-1-1----------------|
|-------------------------3-3-3-3-3-------------------------------|2x

riff3

riff1 2x

CHORUS 2x

SOLO (dont have it)

riff1

CHORUS 4x