In Flames - Clayman Chords & Tabs

 

Clayman Chords & Tabs

In Flames Chords & Tabs

Version: 1 Type: Tab 1 rating
1 star 2 stars 3 stars 4 stars 5 stars
comments

Clayman Tab

in flames: clayman
guitar tab
andrewg ajdre5252@hotmail.com

intro
e------------------------------------------------------
b------------------------------------------------------
g------------------------------------------------------
d---6-5-6-------5-6-5-3--6-5-6------------5-3-----5-3--  x2
a---------6-5-6----------------6-5-6--3-3-----3-3------
E------------------------------------------------------

[ Tab from: http://www.guitartabs.cc/tabs/i/in_flames/clayman_tab.html ]
verse
e--------------------------------------------------------
b--------------------------------------------------------
g--77777777--1010101010101010--77777777--10101010--6--8--
d--77777777--1010101010101010--77777777--10101010--6--8-- x2
a--55555555--8-8-8-8-8-8-8-8---55555555--8-8-8-8---4--6--
E--------------------------------------------------------

refrain
e-------------------------------------------------------------------
b-------------------------------------------------------------------
g----------5----------5--------------------5----------5----5555555--
d---7--------5-9--------5-3333333----7-------5--9-------5--5555555--
a---7-5/7------9-5/7------3333333----7-5/7------9-5/7------3333333--
E---5----------7----------1111111----5----------7-------------------


the chorus uses the same pattern and notes that the intro has.
again, i dont know the solos...if you do please email me ajdre5252@hotmail.com
Comments