In Flames - Bullet Ride Chords & Tabs

 

Bullet Ride Chords & Tabs

In Flames Chords & Tabs

Version: 1 Type: Bass Tab 0 ratings
1 star 2 stars 3 stars 4 stars 5 stars
comments

Bullet Ride Bass Tab

Song: Bullet Ride
Band: In Flames
Album: Clayman

Intro x2
|---|:--------------------------------------:|
|---|:--------------------------------------:|
|2~3|:2(as many times needed--0-0-0-0-0-0-3~:| 
|---|:--------------------------------------:|

Verse x1
|-----------------------------------------------------------|
|-----------------------------------------------------------|
|--------------------------2--------------------------------|
|2-2----2-2-2----2-2----2-2-----2-2----2-2-2----2-2----2-2-0|

|---------------------------------------------------------------|
|---------------------------------------------------------------|
|-----------------------------2---------------------------------|
|2-2-2----2-2-2----2-2-2---2-2-----2-2-2----2-2-2----2-2-2---2-0|

Pre-Chorus x2
|---------------------------------------------------------|
|---------------------------------------------------------|
|2-2---2-2---2-2--5777-----------------------------------5|
|----------------------0-0-0-0-0-0-0-0----2-2---3-3----5--|

Chorus x2
|---------------------------------------------------------------|
|---------------------------------------------------------------|
|2-2-2-2-------------------------2-2-2-2------------------------|
|--------2-2-2-2-3-3-3-3-0-0-0-0---------0-0-0-0-3-3-3-3-5-5-6-6|

Verse x1
|-----------------------------------------------------------|
|-----------------------------------------------------------|
|--------------------------2--------------------------------|
|2-2----2-2-2----2-2----2-2-----2-2----2-2-2----2-2----2-2-0|

|---------------------------------------------------------------|
|---------------------------------------------------------------|
|-----------------------------2---------------------------------|
|2-2-2----2-2-2----2-2-2---2-2-----2-2-2----2-2-2----2-2-2---2-0|

Pre-Chorus x2
|---------------------------------------------------------|
|---------------------------------------------------------|
|2-2---2-2---2-2--5777-----------------------------------5|
|----------------------0-0-0-0-0-0-0-0----2-2---3-3----5--|

Chorus x2
|---------------------------------------------------------------|
|---------------------------------------------------------------|
|2-2-2-2-------------------------2-2-2-2------------------------|
|--------2-2-2-2-3-3-3-3-0-0-0-0---------0-0-0-0-3-3-3-3-5-5-6-6|
[ Tab from: http://www.guitartabs.cc/tabs/i/in_flames/bullet_ride_btab.html ]
Pre-Bridge x1
|---------------------------------------|
|---------------------------------------|
|2(as many times needed)--0-0-0-0-0-0-3~| 
|---------------------------------------|

|-------------------------------------|
|-------------------------------------|
|2(as many times needed--0-0-0-0-0-0--|
|------------------------------------3|

Bridge x1
|-----------------------------------------------------|
|-----------------------------------------------------|
|---------------------------2-2-2-2----2-2-2-2-----2-2|
|3-3-3-3----3-3-3-3----3-3----------------------------|

|-------------------------------|
|-------------------------------|
|-------------------------------|
|3-3-3-3---3-3-3-3---3-3---0~ 2~|

|------------------------------------------------|
|------------------------------------------------|
|-----------------------2-2-2----4-4----4-5------|
|3(as many times needed)--------------------0~ 2~|

Intro x2
|-------------------------------------|
|-------------------------------------|
|2(as many times needed--0-0-0-0-0-0-3|
|-------------------------------------|

Verse x1
|-----------------------------------------------------------|
|-----------------------------------------------------------|
|--------------------------2--------------------------------|
|2-2----2-2-2----2-2----2-2-----2-2----2-2-2----2-2----2-2-0|

|---------------------------------------------------------------|
|---------------------------------------------------------------|
|-----------------------------2---------------------------------|
|2-2-2----2-2-2----2-2-2---2-2-----2-2-2----2-2-2----2-2-2---2-0|

Pre-Chorus x2
|---------------------------------------------------------|
|---------------------------------------------------------|
|2-2---2-2---2-2--5777-----------------------------------5|
|----------------------0-0-0-0-0-0-0-0----2-2---3-3----5--|

Chorus x2
|---------------------------------------------------------------|
|---------------------------------------------------------------|
|2-2-2-2-------------------------2-2-2-2------------------------|
|--------2-2-2-2-3-3-3-3-0-0-0-0---------0-0-0-0-3-3-3-3-5-5-6-6|

Outro x1
|--------------------------------------|
|--------------------------------------|
|2(as many times needed)--0-0-0-0-0-0-3|
|--------------------------------------|

|------------------------------------------------------------------------|
|------------------------------------------------------------------------|
|2-2-2-2----2-2-2----------------------------------------------3--2-2-2-2|
|---------------------3-3-3-3-3-3-3-3-3-3-3-5-5-5-5-5-5-5-5-5-5----------|
Comments