In Extremo - Vollmond Chords & Tabs

 

Vollmond Chords & Tabs

In Extremo Chords & Tabs

Version: 1 Type: Tab 0 ratings
1 star 2 stars 3 stars 4 stars 5 stars
comments

Vollmond Tab

   
Band:  IN EXTREMO

Song:  VOLLMOND

Version 1.0 – 03-02-08

Transcribed By: MAXI MAYERTHALER
Email:          coolmau@gmx.de


.  - palm mute           /  - slide up to
\  - slide down to       ~  - vibrato
h  - hammer on           b  - Bend
p  - pull off            Suffixes for bend
t  - tap                 f  - full bend    h - half bend
ph - pinched harmonic    q  - quarter bend t - tap bend
*  - see comment         ^  - Hold bend    r release bend
x  - Stuccatto           ~  - vibrato bend
,  - slight palm mute    () - ghost note, sustained note
"  - tremolo note         - Trill

DROP D(E B G D A D)

INTRO


|-------------------------------------------------------------------|
|--6-6-5-3-3---6-6-5-3---6-6-5-3-3---5-6-3--3-3-5-5-5-5-3-5-6-5-3---|
|-------------------------------------------------------------------|
|-------------------------------------------------------------------|
|-------------------------------------------------------------------|
|-------------------------------------------------------------------|

|-------------------------------------------------------------------|
|------------6-5-3--------------------------------------------------|
|--5-2-----2--------------------------------------------------------|
|--------3----------------------------------------------------------|
|-------------------------------------------------------------------|
|-------------------------------------------------------------------|

VERSE
[ Tab from: http://www.guitartabs.cc/tabs/i/in_extremo/vollmond_tab.html ]
2x                END WITH
|-------------------|----|
|-------------------|----|
|-------------------|----|
|-------------------|----|
|--0-0--0--1-1--1---|-0--|
|--0-0--0--1-1--1---|-0--|

PRE CHORUS

|-----------------------------------------------------|
|-----------------------------------------------------|
|-----------------------------------------------------|
|-----------------------------------------------------|
|--5----6-5-6-5-6-5-6-5-6-5-6-6-6-5-6-5--7---7-7---7--|
|--5----6-5-6-5-6-5-6-5-6-5-6-5-6-5-6-5--7---7-7---7--|


CHORUS    GUITAR 1

|--------------------------------------------------------------------------------------|
|--6-6-5-3-3---6-6-5-3---6-6-5-3-3---5-6-3--3-3-5-5-5-5-3-5-6-5-3-------------6-5-3----|
|-------------------------------------------------------------------5-2-----2----------|
|-------------------------------------------------------------------------3------------|
|--------------------------------------------------------------------------------------|
|--------------------------------------------------------------------------------------|

GUITAR 2

|-----------------------------------------------------------------------------------|
|-----------------------------------------------------------------------------------|
|-----------------------------------------------------------------------------------|
|---7----------7----------5----------7----------5-----------3-----------------------|
|---5----------5----------3----------5----------3-----------1-----------------------|
|-------------------------------------------------------------------3333---2222---0-|



Comments