Impossibles - Never Say Goodbye Chords & Tabs

 

Never Say Goodbye Chords & Tabs

Impossibles Chords & Tabs

Version: 1 Type: Tab 0 ratings
1 star 2 stars 3 stars 4 stars 5 stars
comments

Never Say Goodbye Tab

   
this is never say goodbye by the impossibles...

(b)=bend 
Note- a number in (), like (7) means hammer on or hammer off on that fret, 
whatever sounds right to you...



Ok...heres the chords for the intro, chorus and all that good stuff...
sorry i didnt put in the # of times each chord is strummed.. 
but its not too hard to figure out..but whatever...enjoy!

Intro- x2- 

E-----------------
B-----------------
G-8-------5-------
D-8-5-6-8-5-5-6-8-
A-6-5-6-8-3-5-6-8-
E---3-4-6---3-4-6-

verse-

E---------------------------------------------
B----------------------------------------------
G-8----------------------------8---------------  
D-8-(Hold for A while)-5-6-9-8-8-(hold)-5-6-9-8  
A-6--------------------5-6-9-8-6--------5-6-9-8
E----------------------3-4-7-6----------3-4-7-6

right after that it goes into the chorus line (this is the part im not 100% sure on)

E----------------------------------------------------
B----------------------------------------------------
G-8-3-5---------5-3---------8-3-5---------5-3--------  
D-8-3-5-3-5-6-5-5-3-5-6-9-8-8-3-5-3-5-6-5-5-3-5-6-9-8
A-6-1-3-3-5-6-5-3-1-5-6-9-8-6-1-3-3-5-6-5-3-1-5-6-9-8
E-------1-3-4-3-----3-4-7-6-------1-3-4-3-----3-4-7-6  


interlude thing----i know for sure that this isnt all right...
i think im missing a couple powerchords

E---------------------------------
B---------------------------------
G-8-5-------8-----8-5-------8-----
D-8-5-5-6-5-8-6-5-8-5-5-6-5-8-6-5-
A-6-3-5-6-5-6-6-5-6-3-5-6-5-6-6-5-
E-----3-4-3---4-3-----3-4-3---4-3-


[ Tab from: http://www.guitartabs.cc/tabs/i/impossibles/never_say_goodbye_tab.html ]
SOLO!!! the middle part is kinda tricky, but sounds cool
  
E-------------------------------11-10--8-10----8-----------------8-----8-
B------------8-9-11-8-9-(8)-(9)-------------11----9--11--8--9-11----11---
G--10(b)-8-8--8-8--------------8--8--8--8--8--8--8--8--8--8--8--8--8--8--
D------------------------------------------------------------------------
A------------------------------------------------------------------------
E------------------------------------------------------------------------


E--10-12------------------------
E----------18(b)-18(b)-16-15-13-
B-------------------------------
G-8--8--8-----------------------
D-------------------------------
A-------------------------------
E-------------------------------



outro/chorus

E----------------------------------
B----------------------------------
G---------8-3-5---------5-3--------
D-5-6-9-8-8-3-5-3-5-6-5-5-3-5-6-9-8
A-5-6-9-8-6-1-3-3-5-6-5-3-1-5-6-9-8
E-3-4-7-6-------1-3-4-3-----3-4-7-6

 


SONG ORDER.... 
Intro x2
verse 
chorus
verse
chorus
interlude
solo
outro

Lyrics:
Some summer sunday, driftin between sleep and waking,
your absence brought me to..
sick feeling filled me,
slowly remembering, the bitterness, 
of the final kiss,
motionless...

chorus...
never say goodbye,
when we gave in,
but we dont mind.
if we never say goodbye,
there'll be no end, there'll be no end...

Stream of conciousness,
leads me to drowning dreams,
looking up, your colored baby blue...
the frustration of, knowing what its like, 
to breath you in, remember when, 
remember then...
 
Chorus


Unless, unless, we can dig our, fingers, 
into, each other..yeah...

Chorus 

				Punk Lives....
Comments