Impossibles - Hey You Kids Chords & Tabs

 

Hey You Kids Chords & Tabs

Impossibles Chords & Tabs

Version: 1 Type: Tab 0 ratings
1 star 2 stars 3 stars 4 stars 5 stars
comments

Hey You Kids Tab

          alright all you IMPOSSIBLES fans,your gonnna have some fun with this one.
          SONG:hey you kids!
          ARTIST: IMPOSSIBLES!
          ALBUM: RETURN
          
           Intro:X2,clean,standard tuning
           held on to yesterday soo hard......
          
          E------------------------------------------------------------------
          B------------------------------------------------------------------
          G------------------------------------------------------------------
          D-111111-11-11-11-11-11-11-11-11-11-11-11-11-11-999999-------------
          A-000000--9--9--9--9--9--9--9--8--8--8--8--8--8-777777-------------
          E------------------------------------------------------------------
           
            Verse 1:X4
          
          D-----6-777------------------------
          A-777-4-555------------------------
          E-555------------------------------
          
           Lead into chorus:X2
          D----------77777777-----------999999999-------------
          A-44444444-55555555-777777777-777777777-------------
          E-22222222----------555555555-----------------------
          
            Pre-verse part is the same as the verse but with only one guitar
            Outro is the same as the into, but with distortion.
          
           Solo:
          
          E---------------------------
          B-----10-9------------------
          G---9-----11--11-10----9----
          D-11--------11--------------
          A---------------------------
          E---------------------------
          
           Repeat through the rest of the song
           (not totally sure how to end it, its a fade out)
          
          thats pretty much it, email me if you have any questions, ill
          have the answers.
          Dallas"sexy man" C.
          apocolypselater0@aol.com
[ Tab from: http://www.guitartabs.cc/tabs/i/impossibles/hey_you_kids_tab.html ]
Comments