Impossibles - Fatboy Chords & Tabs

 

Fatboy Chords & Tabs

Impossibles Chords & Tabs

Version: 1 Type: Tab 0 ratings
1 star 2 stars 3 stars 4 stars 5 stars
comments

Fatboy Tab

FATBOY - The Impossibles


By: Josh(some1unimportant@hotmail.com)

Intro: distortion
e[--------------]
B[--------------]
G[--7-----------]
D[--7--9--8--7--]
A[--5--9--8--7--]
E[-----7--6--5--]

Verse: clean
e[--5-5-X-5-X-5-X-7-7-X-7-X-7-X-6-6-X-6-X-6-X-X-5-5-X-5-X-]
B[--7-7-X-7-X-7-X-7-7-X-7-X-7-X-6-6-X-6-X-6-X-X-5-5-X-5-X-]
G[--7-7-X-7-X-7-X-8-8-X-8-X-8-X-7-7-X-7-X-7-X-X-6-6-X-6-X-]
D[--------------------------------------------------------]
A[--------------------------------------------------------]
E[--------------------------------------------------------]

Pre-Prechorus: clean
e[-------X-7-7-X-6-6-X-5-5-]
B[-------X-7-7-X-6-6-X-5-5-]
G[--7--7-X-8-8-X-7-7-X-6-6-]
D[--7--7-------------------]
A[--5--5-------------------]
E[--5--5-------------------]
   {****}(distortion)
[ Tab from: http://www.guitartabs.cc/tabs/i/impossibles/fatboy_tab.html ]
Prechorus: distortion(x3)
e[----------------------------]
B[----------------------------]
G[--------------7-7-7---------]
D[----------X-X-7-7-7-9-9-9-9-]
A[----------X-X-5-5-5-9-9-9-9-]
E[----------X-X-------7-7-7-7-]

After third time play this: distortion
e[----------------------------]
B[----------------------------]
G[----------------------------]
D[-8-8-8-8-7-7-7-7------------]
A[-8-8-8-8-7-7-7-7------------]
E[-6-6-6-6-5-5-5-5------------]

Chorus: distortion
e[---------------------------------------------------------]
B[---------------------------------------------------------]
G[--7-7-7--7-7-7-------------------------------------------]
D[--7-7-7--7-7-7--4-4-4--4-4-4--5-5-5--5-5-5--7-7-7--7-7-7-]
A[--5-5-5--5-5-5--4-4-4--4-4-4--5-5-5--5-5-5--7-7-7--7-7-7-]
E[----------------2-2-2--2-2-2--3-3-3--3-3-3--5-5-5--5-5-5-]
p.m.{..}   {..}   {..}   {..}   {..}   {..}   {..}   {..}


Song structure:
Intro(x2)
Verse(x4)
Pre-Prechorus(x4)
Prechorus(x3)
Chorus(x4)
Solo: Verse(x2)
Verse(x2)
Pre-Prechorus(x4)
Prechorus(x3)
Chorus(x4)
Outro: Intro(x2)

Sorry I couldn't include the cock-rock solo. I don't know it. It was sampled 
anyways. The Impossibles didn't play it.
====
Comments