Impossibles - Enterreturn Chords & Tabs

 

Enterreturn Chords & Tabs

Impossibles Chords & Tabs

Version: 1 Type: Tab 0 ratings
1 star 2 stars 3 stars 4 stars 5 stars
comments

Enterreturn Tab

alright, this is my first tab so.... i really hope it doesnt suck.
its a rad song by my very favorite band, the impossibles, called return.
 
here it goes

the song is in drop d, and according to that, this is what i figured out

intro
---------------------------------------------------------------
---------------------------------------------------------------
---------------------------------------------------------------
-4-4--2-2--0-0-------------------------------------------------
----------------2-2--0-0--------0--------------------------0---
---------------------------4-5----0---0-0-0--0-0-0-0---4-5---0-




---------------------------------------------------------------
---------------------------------------------------------------
-----------------------------4--------------3------------------
-----------------------------4--------------3------------------
--------------------------0--2---2-2-2-2-2--1---1-1-1-1-1------
--0-0-0---0-0-0-0-----4-5-----------------------------------0--


[ Tab from: http://www.guitartabs.cc/tabs/i/impossibles/enterreturn_tab.html ]
---------------------------------------------------------------
---------------------------------------------------------------
---------------------------------------------------------------
--4-4--2-2--0-0------------------------------------------------
-----------------2-2--0-0---------0----------------------------
-----------------------------4-5----0--------------------------



chorus

-------------------------------------------------------------
-------------------------------------------------------------
------------5----------------7----5--------------------------
---2--------5----------------7----5----5-----7---------------
---2--------3----------------5----3----5-----7---------------
---2-----------------------------------5-----7---------------

so here's our return         days move slowly, we've spent lonely 
one more chance to share     years waiting for your return
all the rest of my..





well folks, thats about all i got. but i think that it will get you 
through most of the song. any questions or comments, ya'll can email
me at dirtjump90@hotmail.com
Comments