Impossibles - Always Have Always Will Chords & Tabs

 

Always Have Always Will Chords & Tabs

Impossibles Chords & Tabs

Version: 1 Type: Tab 0 ratings
1 star 2 stars 3 stars 4 stars 5 stars
comments

Always Have Always Will Tab

Artist: The Impossibles
Song: Always Have, Always Will
Submitted By: Michael Fresco (Kega333@yahoo.com)

Verse
E:------------------
B:------------------
G:------------------
D:------------------
A:----xx1-x1-xxx1-2-
E:--2---------------
[ Tab from: http://www.guitartabs.cc/tabs/i/impossibles/always_have_always_will_tab.html ]
Chorus (Hold my breath all night...)
E:-----------------------------------------
B:-----------------------------------------
G:-----------------------------------------
D:-----------------------------------------
A:--22222222---66666666--77777777--44444444
E:--22222222---66666666--77777777--44444444

2nd Part of Chorus (Who-o-o-o-o.....)
E:-----------------------
B:-----------------------
G:-----------------------
D:-----------------------
A:--7777--6666--7777-4444
E:--7777--6666--7777-4444

Bridge
E:-------------------
B:-------------------
G:-------------------
D:-------------------
A:--7777-xx4--xx-2----
E:--7777-xx4--xx-2----

Thats it. I'm pretty sure its not 100% right... but you get the idea 
and the basic chord progression and what not. play around with 
it, its a pretty cool song




Comments