Impossibles - Always Have Always Will Chords & Tabs

 

Always Have Always Will Chords & Tabs

Impossibles Chords & Tabs

Version: 2 Type: Bass Tab 0 ratings
1 star 2 stars 3 stars 4 stars 5 stars
comments

Always Have Always Will Bass Tab

Song: Always Have, Always Will
Band: The Impossibles
Tabbed by: James Bradley

> means strum

I think this is mostly right.
During the chorus, just play the "Hold my breath" part
I think it will be pretty easy to figure out


"Fell asleep in the van"
G----------------------|-----------------------------------
D----------------------|-----------------------------------
A----------------------|-----------------------------------
E--2-2-0-2--2-2-2-0-2--|--2--------------------------------

"I do the best that I can"
G----------------------------------------------------------
D----------------------------------------------------------
A----------------------------------------------------------
E--2-2-2-2-0-2--2-2-0-2------------------------------------

"hours to go and I'm holding my breath"
G----------------------------------------------------------
D------------1---1-4------------------------------------------
A------4---2---2----------------------------------------------
E--2-2---2-----------2-----------------------------------------
[ Tab from: http://www.guitartabs.cc/tabs/i/impossibles/always_have_always_will_btab_ver_2.html ]
"Absence will make your heart grow fonder"
G----------------------------------------------------------
D----------------------------------------------------------
A--4-------------------------------------------------------
E-----0-2--------------------------------------------------

"True..."
G----------------------------------------------------------
D-----3-4-6--3---------------------------------------------
A--4-----------4-----------4-4-----------------------------
E-----------------2--2-2-0---------------------------------

"I will tell you what I'll do"
G----------------------------------------------------------
D----------------------------------------------------------
A--3-3-3-3-4-----------------------------------------------
E----------------------------------------------------------

"Hold my breath..."
G----------------------------------------------------------
D-------1>----0>-------------------------------------------
A----1>----2>----------------------------------------------
E-2>-------------------------------------------------------

"I never feared you"
G----------------------------------------------------------
D------------4---4-----------------------------------------
A-5>-4>----------------------------------------------------
E-------2>-----2----2--------------------------------------

"I sleep as much as I can"
G-----------2---2--------------------------------------------
D---------1---1----------------------------------------------
A----------------------------------------------------------
E--2-2-2-2-----------------------------------------------------
Comments