Imperial Teen - Luxury Chords & Tabs

 

Luxury Chords & Tabs

Imperial Teen Chords & Tabs

Version: 2 Type: Tab 0 ratings
1 star 2 stars 3 stars 4 stars 5 stars
comments

Luxury Tab

   
Luxury
Imperial Teen
Tabbed by Robert
wrt2@students.uwf.edu

G1
e|-----------------------|
B|-----------------------|
G|-----------------------|
D|-----7-----7-----7-----|
A|-----7-----7-----7-----|
E|--0--5--0--5--0--5--0--|etc...

G2
e|------------------------------|
B|--10--10\7--7--7/10--12\7--7--|
G|------------------------------|
D|------------------------------|
A|------------------------------|
E|------------------------------|play this twice
then play it with the lyrics
Band tacet

I licked the lap of luxury
Bit off enough to chew
I love the taste of anything
That I can spit at you

[ Tab from: http://www.guitartabs.cc/tabs/i/imperial_teen/luxury_tab_ver_2.html ]
[There's actually some picking pattern here
but I don't know it]
       A                     F#
I feel bad to be good and so misunderstood
About bad and what's good and what's misunderstood
To be had is too good to be misunderstood
It's just sad that I don't have a friend
A5                   F#5
I crashed the family limousine
  A5                F#5
I drove to feel the drive
    A5                 F#5
The chouffer's dead my momma said
    A5             F#5
And you're the one alive
A5 F#5                               A5 F#5
      I can't be what you want me to be

A5       F#5        E
What you bought was free

The rest is pretty much the same.
E-mail me or message me at my site
if you have any comments or corrections
www.getinyourcrib.com/user/ageless0
Comments