Imperial Teen - Eternity Chords & Tabs

 

Eternity Chords & Tabs

Imperial Teen Chords & Tabs

Version: 2 Type: Tab 0 ratings
1 star 2 stars 3 stars 4 stars 5 stars
comments

Eternity Tab

   
Eternity
By Imperial Teen
Tabbed by Robert Tabb
wrt2@students.uwf.edu

[This is a really easy song.  I hope you enjoy it]
G1: D           A         G
G2:
e|--2--2--1--2----------------|
B|--------------3--5~---5\3~--|
G|----------------------------|
D|----------------------------|
A|----------------------------|
E|----------------------------|
[ Tab from: http://www.guitartabs.cc/tabs/i/imperial_teen/eternity_tab_ver_2.html ]
G1: D           A         G
G2:
e|--2--2--1--2----------------|
B|--------------3--5~---5/13~-|
G|----------------------------|
D|----------------------------|
A|----------------------------|
E|----------------------------|

D        A              G
What are we supposed to be?
D               A                G
Let's watch our friends we're on TV
D          A               G
Freeze the frosting on the girlie magazines
    D             A           G
For etern- etern- etern- eternity
        D                 A                G
And you turn you turn you turn you turn to me

[In case you don't know:]
D|XX0323|
A|X02220|
G|320001|

Any questions or comments then email me!
Comments