Imperial Teen - Eternity Chords & Tabs

 

Eternity Chords & Tabs

Imperial Teen Chords & Tabs

Version: 1 Type: Tab 0 ratings
1 star 2 stars 3 stars 4 stars 5 stars
comments

Eternity Tab

   
Eternity
By Imperial Teen
Tabbed by Robert Tabb (wrt2@students.uwf.edu)
Corrected by Eamon Doyle (accordionmartyr@hotmail.com)

Hi.  This is the same as the first tab, with a few slight changes 
for accuracy.  Thanks to Robert for the original tab.

Standard tuning.  All three chords are in root position.

G1: D           A         G
G2:
e|--2--2--3--2----------------|
B|--------------3--5~---5\3~--|
G|----------------------------|
D|----------------------------|
A|----------------------------|
E|----------------------------|
[ Tab from: http://www.guitartabs.cc/tabs/i/imperial_teen/eternity_tab.html ]
G1: D           A         G
G2:
e|--2--2--3--2----------------|
B|--------------3--5~---5/12~-|
G|----------------------------|
D|----------------------------|
A|----------------------------|
E|----------------------------|

D        A              G
What are we supposed to be?
D               A                   G
Let's watch our friends, they're on TV
D          A               G
Freeze the frosting on the girlie magazines
    D           A          G
For etern-etern-etern-eternity
        D                   A                 G
And you turn, you turn, you turn, you turn to me
Comments