Imperial State Electric - Stay The Night Chords & Tabs

 

Stay The Night Chords & Tabs

Imperial State Electric Chords & Tabs

Version: 1 Type: Tab 0 ratings
1 star 2 stars 3 stars 4 stars 5 stars
comments

Stay The Night Tab

   
'STAY THE NIGHT' by Imperial State Electric
Album: Reptile Brain Music
Submitted by: Victor (vctrklndr[a]hotmail.com)

Tuning: Half step down (Eb Ab Db Gb Bb Eb)

        6  5  4  3  2  1
        E  A  D  G  B  E
Chords:
G#m:    4  6  6  4  4  4
E:      x  7  9  9  x  x
F#:     x  9  11 11 x  x
D#:     x  6  8  8  x  x
C#:     x  4  6  6  x  x



Listen to the song for correct timing etc. Enjoy!

INTRO:

e|-4-4-4---4-4-4-------------------4-4-4---4-4-4--------------------|
B|-4-4-4---4-4-4-------------------4-4-4---4-4-4--------------------|
G|-4-4-4---4-4-4---9-9-9---9-9-9---4-4-4---4-4-4---9-9-9---9-9-9-11-|
D|-6-6-6---6-6-6---9-9-9---9-9-9---6-6-6---6-6-6---9-9-9---9-9-9-11-|
A|-6-6-6---6-6-6---7-7-7---7-7-7---6-6-6---6-6-6---7-7-7---7-7-7-9--|
E|-4-4-4---4-4-4-------------------4-4-4---4-4-4--------------------|

e|-4-4-4-------4-4-4-4------------------------------|
B|-4-4-4-4-7-7-4-4-4-4-7-7--------------------------|
G|-4-4-4-4-6-6-4-4-4-4-6-6-9-9-9-9-----9-9-9-9-11---|
D|-6-6-6-6-4-4-6-6-6-6-4-4-9-9-9-9-9-9-9-9-9-9-11---|
A|-6-6-6-6-----6-6-6-6-----7-7-7-7-9-9-7-7-7-7-9----|
E|-4-4-4-4-----4-4-4-4-------------7-7------------4-|


VERSE:

G#m  F#       E
It's way past time
F#                G#m   F# E F#
I'd best be going home
G#m   F#     E
Tired of the chase
  F#         G#m   F# E F#
I want to be alone

G#m    F#          E
But if you need it fast
D#         C#  D#         E    F#
As long as you don't come back
G#m          F#m          E    F#
You know you just need to ask


        CHORUS:
        You can stay...
        e|-4-4-4-------4-4-4-4-------------------------------|
        B|-4-4-4-4-7-7-4-4-4-4-7-7---------------------------|
        G|-4-4-4-4-6-6-4-4-4-4-6-6-9-9-9-9-----9-9-9-9-11-11-|
        D|-6-6-6-6-4-4-6-6-6-6-4-4-9-9-9-9-9-9-9-9-9-9-11-11-| x2
        A|-6-6-6-6-----6-6-6-6-----7-7-7-7-9-9-7-7-7-7-9--9--|
        E|-4-4-4-4-----4-4-4-4-------------7-7---------------|


VERSE:
[ Tab from: http://www.guitartabs.cc/tabs/i/imperial_state_electric/stay_the_night_tab.html ]
G#m  F#      E
Come try the tomb
     F#                G#m   F# E F#
It's where you need to be
G#m  F#       E
Your mouth it moves
    F#                G#m    F# E F#
But I cannot hear you speak

G#m   F#          E
So if you need it fast
D#         C#  D#         E    F#
As long as you don't come back
G#m          F#m          E    F#
You know you just need to ask


        CHORUS:
        You can stay...
        e|-4-4-4-------4-4-4-4-------------------------------|
        B|-4-4-4-4-7-7-4-4-4-4-7-7---------------------------|
        G|-4-4-4-4-6-6-4-4-4-4-6-6-9-9-9-9-----9-9-9-9-11-11-|
        D|-6-6-6-6-4-4-6-6-6-6-4-4-9-9-9-9-9-9-9-9-9-9-11-11-| x3
        A|-6-6-6-6-----6-6-6-6-----7-7-7-7-9-9-7-7-7-7-9--9--|
        E|-4-4-4-4-----4-4-4-4-------------7-7---------------|


BRIDGE:
e|---------------------------------|
B|---------------------------------|
G|------------------------------11-|
D|-6-6-6----6-6-6----9-9-9---11----|
A|-4-4-4----4-4-4----7-7-7-9-------|
E|---------------------------------|

SOLO:
e|-4-4-4-------4-4-4-4-------------------------------|
B|-4-4-4-4-7-7-4-4-4-4-------------------------------|
G|-4-4-4-4-6-6-4-4-4-4-6-6-9-9-9-9-----9-9-9-9-11-11-|
D|-6-6-6-6-4-4-6-6-6-6-4-4-9-9-9-9-9-9-9-9-9-9-11-11-| x2
A|-6-6-6-6-4-4-6-6-6-6-4-4-7-7-7-7-9-9-7-7-7-7-9--9--|
E|-4-4-4-4-----4-4-4-4-------------7-7---------------|
                    
                    You can stay...
e|------------------4-4-4----4-4-4-----------|
B|------------------4-4-4----4-4-4-----------|
G|------------------4-4-4----4-4-4-----9-9-9-|
D|------------------6-6-6----6-6-6-----9-9-9-|
A|-------6-4-6-7-9--6-6-6----6-6-6-----7-7-7-|
E|-4-2-0------------4-4-4----4-4-4-----------|


        CHORUS & OUTRO:

        e|-4-4-4-------4-4-4-4-------------------------------|
        B|-4-4-4-4-7-7-4-4-4-4-7-7---------------------------|
        G|-4-4-4-4-6-6-4-4-4-4-6-6-9-9-9-9-----9-9-9-9-11-11-|
        D|-6-6-6-6-4-4-6-6-6-6-4-4-9-9-9-9-9-9-9-9-9-9-11-11-| x4
        A|-6-6-6-6-----6-6-6-6-----7-7-7-7-9-9-7-7-7-7-9--9--|
        E|-4-4-4-4-----4-4-4-4-------------7-7---------------|
Comments