Imperial State Electric - Apologize Chords & Tabs

 

Apologize Chords & Tabs

Imperial State Electric Chords & Tabs

Version: 1 Type: Tab 0 ratings
1 star 2 stars 3 stars 4 stars 5 stars
comments

Apologize Tab

   
'APOLOGIZE' by Imperial State Electric
Album: Reptile Brain Music
Submitted by: Victor (vctrklndr[a]hotmail.com)

Tuning: Half step down (Eb Ab Db Gb Bb Eb)


Listen to the song for correct timing etc. It's practically the same riff 
throughout the song. Enjoy!

INTRO:

e|-------------------|
B|-------------------|
G|-6-6-----------4-6-|
D|-6-6-2-4---2-2-4-6-| x4
A|-4-4-2-4---2-2-2-4-|
E|-----0-2---0-0-----|


VERSE:
Well I'm in...
e|-------------------|
B|-------------------|
G|-6-6-----------4-6-|
D|-6-6-2-4---2-2-4-6-| x4
A|-4-4-2-4---2-2-2-4-|
E|-----0-2---0-0-----|


        CHORUS:
        Let me calm down...
        GTR I
        e|-------------------|
        B|-------------------|
        G|-6-6-4-6---4-4-4-6-|
        D|-6-6-2-4---2-2-4-6-| x6
        A|-4-4-----------2-4-|
        E|-------------------|

        GTR II
        e|-------------------|
        B|-------------------|
        G|-6-6-----------4-6-|
        D|-6-6-2-4---2-2-4-6-| x6
        A|-4-4-2-4---2-2-2-4-|
        E|-----0-2---0-0-----|


VERSE:
Yes, I'm trying...
e|-------------------|
B|-------------------|
G|-6-6-----------4-6-|
D|-6-6-2-4---2-2-4-6-| x4
A|-4-4-2-4---2-2-2-4-|
E|-----0-2---0-0-----|

[ Tab from: http://www.guitartabs.cc/tabs/i/imperial_state_electric/apologize_tab.html ]
        CHORUS:
        Let me calm down...
        GTR I
        e|-------------------|
        B|-------------------|
        G|-6-6-4-6---4-4-4-6-|
        D|-6-6-2-4---2-2-4-6-| x6
        A|-4-4-----------2-4-|
        E|-------------------|

        GTR II
        e|-------------------|
        B|-------------------|
        G|-6-6-----------4-6-|
        D|-6-6-2-4---2-2-4-6-| x6
        A|-4-4-2-4---2-2-2-4-|
        E|-----0-2---0-0-----|


BRIDGE:
e|-----------------9------------------------------|
B|-----5-4-5-4-5-7-9------5-4-5-4-5-7-7b9-7p5-7b9-|
G|-8---4-4-4-4-4-6----8---4-4-4-4-4-6-------------|
D|-6------------------6---------------------------|
A|------------------------------------------------|
E|------------------------------------------------|


SOLO RIFF:
e|-------------------|
B|-------------------|
G|-6-6-----------4-6-|
D|-6-6-2-4---2-2-4-6-| x4
A|-4-4-2-4---2-2-2-4-|
E|-----0-2---0-0-----|


        CHORUS & OUTRO:
        Let me calm down...
        GTR I
        e|-------------------|
        B|-------------------|
        G|-6-6-4-6---4-4-4-6-|
        D|-6-6-2-4---2-2-4-6-| x6
        A|-4-4-----------2-4-|
        E|-------------------|

        GTR II
        e|-------------------|
        B|-------------------|
        G|-6-6-----------4-6-|
        D|-6-6-2-4---2-2-4-6-| x6
        A|-4-4-2-4---2-2-2-4-|
        E|-----0-2---0-0-----|
Comments