Imperanon - Vein I Bleed Chords & Tabs

 

Vein I Bleed Chords & Tabs

Imperanon Chords & Tabs

Version: 1 Type: Tab 0 ratings
1 star 2 stars 3 stars 4 stars 5 stars
comments

Vein I Bleed Tab

Tabbed by:17
Imperanon just came out with a cd this year so they are fairly new, but they are a
amazing, and have great melody. Take the time to listen to some of their songs, you
will be blown away. 

Tuning:Normal
[ Tab from: http://www.guitartabs.cc/tabs/i/imperanon/vein_i_bleed_tab.html ]
e|-000--7-5-3-2-3-5--000--7-5-8-5-3-2--000-7-5-3-2-3-5-000-7-5-000-8-5-----|
B|-------------------------------------------------------------------------|
G|-------------------------------------------------------------------------|
D|-------------------------------------------------------------------------|
A|-------------------------------------------------------------------------|
E|-------------------------------------------------------------------------|

e|-------------------------------------------------------------------------|
B|-------------------------------------------------------------------------|
G|-------------------------------------------------------------------------|
D|-000-000-000-000--------000-000-000---5----------------------------------|
A|-000-000-000-000-5/8\3--000-000-000-5-3-3--------------------------------|
E|-000-000-000-000-3/6\1--000-000-000-3---1--------------------------------|
Comments