Impaled Nazarene - Endless War Chords & Tabs

 

Endless War Chords & Tabs

Impaled Nazarene Chords & Tabs

Version: 1 Type: Tab 0 ratings
1 star 2 stars 3 stars 4 stars 5 stars
comments

Endless War Tab

   
Impaled Nazarene
The Endless War
All that you Fear
Tabbed By Kevin Cruz

THis Song was taken from their new Album

Tune all strings down one-whole step: D A F G C D

D:--------------|-------------------------------|
A:--------------|-------------------------------|
F:--------------|-12~-10~-8~-7~--12~-10~-8~-7~--|
G:--------------|-------------------------------|
C:--10--5\10-5--|-------------------------------|
D:--8---3\8--3--|-------------------------------|

D:-------------------------------------------------------|------|
A:-------------------------------------------------------|------|
F:-------------------------------------------------------|------|
G:--5-----7-----------------5-----7-----10-----12--------|--4x--|
C:--3-333-5-555-5-----8-----3-333-5-555-8--888-10-101010-|------|
D:--------------3-333-6-666------------------------------|------|

D:----------------------------------------------------|------|
A:----------------------------------------------------|------|
F:-----------------------------12--10-----------------|------|
G:--11--11-12-13-12---11-12-13---------13--12--10--9--|--4x--|
C:----------------------------------------------------|------|
D:----------------------------------------------------|------|

D:-----------------------|------|
A:-----------------------|------|
F:-----------------------|------|
G:--5--------------------|--4x--|
C:--3--6--5--------------|------|
D:-----4--3--8-7-5-8-7-5-|------|
[ Tab from: http://www.guitartabs.cc/tabs/i/impaled_nazarene/endless_war_tab.html ]
D:--------------------------------------------------------------|-----|
A:--------------------------------11~-8~--8~-6~--11~-8~--8~-6~--|--4--|
F:--12~-10~-8~-7~--12~-10~-8~-7~--12~-10~-8~-7~--12~-10~-8~-7~--|--5--|
G:--------------------------------------------------------------|-----|
C:--------------------------------------------------------------|-----|
D:--------------------------------------------------------------|-----|

D:--------------------------|------|---------------------------|------|
A:--------------------------|------|---------------------------|------|
F:--------------------------|--4x--|---------------------------|--4x--|
G:--------------------------|------|--3-----3-----3-----3---4--|------|
C:-4-----4-----4-----4-2-5--|------|--1-111-1-111-1-111-1-6-2--|------|
D:-2-222-2-222-2-222-2-0-3--|------|----------------------4----|------|
                     
D:--------------------------|------|---------------------------|------|
A:--------------------------|------|---------------------------|------|
F:--------------------------|--4x--|---------------------------|--4x--|
G:--------------------------|------|--3-----3-----3-----3---4--|------|
C:-4-----4-----4-----4-2-5--|------|--1-111-1-111-1-111-1-6-2--|------|
D:-2-222-2-222-2-222-2-0-3--|------|----------------------4----|------|

CHORUS
D:---------------------------------------------------|------|
A:---------------------------------------------------|------|
F:---------------------------------------------------|------|
G:--5-----5-----5------------------------8-----8-7-8-|--4x--|
C:--3-333-3-333-3-333-5-----6-----6------6-666-6-5-6-|------|
D:--------------------3-333-4-444-4-4444-------------|------|

I HAVEN'T FIGURED OUT THE SOLO IT'S TOO COMPLICATED.
I DID THE BEST I CAN DO.
IT'S A GREAT SONG
Comments