Impaled Nazarene - Blood Is Thicker Than Water Chords & Tabs

 

Blood Is Thicker Than Water Chords & Tabs

Impaled Nazarene Chords & Tabs

Version: 1 Type: Tab 0 ratings
1 star 2 stars 3 stars 4 stars 5 stars
comments

Blood Is Thicker Than Water Tab

   
Blood Is Thicker Than Water - Impaled Nazarene
Album: Suomi Finland Perkele
Tab. Sami Aapaoja (saapaoja@hotmail.com)
                                                                 
Intro

   E5
|------------------------------|
|------------------------------|
|------------------------------|
|--2-2-2-2-2--2--2--2--2-2-2-2-|
|--2-2-2-2-2--2--2--2--2-2-2-2-|
|--0-0-0-0-0--0--0--0--0-0-0-0-|
                                                           
Riff 1

    Em           C            G     B     Em
|----------------0--0--0--0-0-------------0--0--0--0-| x4
|---0--0--0--0-0-1--1--1--1-1-------4--4--0--0--0--0-|
|---0--0--0--0-0-0--0--0--0-0-4--4--4--4--0--0--0--0-|
|---2--2--2--2-2-2--2--2--2-2-5--5--4--4--2--2--2--2-|
|---2--2--2--2-2-3--3--3--3-3-5--5--2--2--2--2--2--2-|
|---0--0--0--0-0--------------3--3--------0--0--0--0-|

Then hit:

 E5
|----------|
|----------|
|----------|
|-2--------|
|-2--------|
|-0--------|

Riff 2

    E5          D5      C5
|--------------------------------| x4
|--------------------------------|
|---------9--9--7-7-7-7/5-5-5-5--|
|---2--2--9--9--7-7-7-7/5-5-5-5--|
|---2--2--7--7--5-5-5-5/3-3-3-3--|
|---0--0-------------------------|

Then play Riff 1 x2
Then play Riff 2 x8

Riff 3
[ Tab from: http://www.guitartabs.cc/tabs/i/impaled_nazarene/blood_is_thicker_than_water_tab.html ]
    Am                        Em
|---0--0--0--0--0--0-0--0-0-0-0--0--0--0--0--0-0--0-0-0-|
|---1--1--1--1--3--3-1--1-1-1-0--0--0--0--1--1-0--0-0-0-|
|---2--2--2--2--2--2-2--2-2-2-0--0--0--0--0--0-0--0-0-0-|
|---2--2--2--2--2--2-2--2-2-2-2--2--2--2--2--2-2--2-2-2-|
|---0--0--0--0--0--0-0--0-0-0-2--2--2--2--2--2-2--2-2-2-|
|-----------------------------0--0--0--0--0--0-0--0-0-0-|

   Am                        Em  
|--0--0--0--0--0--0-0--0-0-0-0--0--0--0--0--0-0--0-0-0--| x2
|--1--1--1--1--3--3-1--1-1-1-0--0--0--0--3--3-0--0-0-0--|
|--2--2--2--2--2--2-2--2-2-2-0--0--0--0--0--0-0--0-0-0--|
|--2--2--2--2--2--2-2--2-2-2-2--2--2--2--2--2-2--2-2-2--|
|--0--0--0--0--0--0-0--0-0-0-2--2--2--2--2--2-2--2-2-2--|
|----------------------------0--0--0--0--0--0-0--0-0-0--|

Then play Riff 1 x4
Then play Riff 2 x8
Then play Intro

   E5 F#5          G5             D#5         E5
|---------------------------------------------------------| x4
|---------------------------------------------------------|
|--9/-11--11--11--12--12--12--12--8--8--8--8--9--9--9--9--|
|--9/-11--11--11--12--12--12--12--8--8--8--8--9--9--9--9--|
|--7/-9---9---9---10--10--10--10--6--6--6--6--7--7--7--7--|
|---------------------------------------------------------|

Then play Riff 3 x2
Then play Riff 1 x4

|--------------0--0--0--0--------------0--0--0--0--|
|--3--3--4--4--0--0--0--0--3--3--4--4--0--0--0--0--|
|--4--4--4--4--0--0--0--0--4--4--4--4--0--0--0--0--|
|--5--5--4--4--2--2--2--2--5--5--4--4--2--2--2--2--|
|--5--5--2--2--2--2--2--2--5--5--2--2--2--2--2--2--|
|--3--3--------0--0--0--0--3--3--------0--0--0--0--|

|---------------------------------------------------------|
|---------------------4-----------------------------------|
|--4------------------4-----------------------------------|
|--5------------------4------------------2----------------|
|--5------------------2------------------2----------------|
|--3-------------------------------------0----------------|
Comments