Impaled Nazarene - Angel Rectums Do Bleed Chords & Tabs

 

Angel Rectums Do Bleed Chords & Tabs

Impaled Nazarene Chords & Tabs

Version: 1 Type: Tab 0 ratings
1 star 2 stars 3 stars 4 stars 5 stars
comments

Angel Rectums Do Bleed Tab

IMPALED NAZARENE - Angel Rectums Do Bleed "Version 1.0"
>From The Album "Rapture"
Transcribed by GoatWarlock(Goatwarlock@Hotmail.com)
All corrections and comments welcome

This one if finished.If you spot a error,tell me!
 
p-Palm mute          v-Vibrato
...-Play many times
/-Slide

This Song Takes One Guitar Downtuned 1 Step
00:00-00:20 RIFFA
|---------------|
|---------------|
|-7------10-9---|
|-5-8-10--8-7---|
|---6--8--------|
|---------------|
[ Tab from: http://www.guitartabs.cc/tabs/i/impaled_nazarene/angel_rectums_do_bleed_tab.html ]
00:20-00:33 RIFFB
|--------------------------------------|
|--------------------------------------|
|--------------------------------------|
|------3...------8...------3...--------|
|-5...-1...-5...-6...-5...-1...-9-8-6--|
|-3...------3...------3...------7-6-4--|

00:33-00:50 RIFFA

00:50-01:03 RIFFB

01:03-01:17 RIFFC
|--------------------------------|
|--------------------------------|
|-7...-8...-7...-----------------|
|----------------8...-7...-------|
|--------------------------8...--|
|--------------------------------|

01:17-01:37 RIFFA

01:37-01:51 RIFFB

01:51-02:00 RIFFA

=====
=END=
=====
Comments