Impaled - Dead Inside Chords & Tabs

 

Dead Inside Chords & Tabs

Impaled Chords & Tabs

Version: 1 Type: Tab 0 ratings
1 star 2 stars 3 stars 4 stars 5 stars
comments

Dead Inside Tab

   
Impaled
"Dead Inside"
Mondo Medicale
Tabbed by Kevin Cruz
From WWW.IMPALED.INFO

Gtr I (B E A D F# B) - 'Untitled'


  Q=100
 4/4
  Gtr I
  E E E E E E E E   T T T T S S T T T T S S T T T T S S T T T T S S
|-----------------|-------------------------------------------------|
|-----------------|-------------------------------------------------|
|-4-----7-4---5-7-|-------------------------------------------------|
|-4-3-6-7-4-3-3-7-|---------4-----------3-----------4-----------3-5-|
|-2-3-6-5-2-3-3-5-|-2-2-2-2---5-2-2-2-2---3-2-2-2-2---5-2-2-2-2-----|
|---1-4-----1-----|-------------------------------------------------|


  T T T T S S T T T T S S T T T T S S S S S S
|-----------------------------------------------|
|-----------------------------------------------|
|-----------------------------------------------|
|---------4-----------3-----------4---3-5-------|
|-2-2-2-2---5-2-2-2-2---3-2-2-2-2---5-----1-3---|
|-----------------------------------------------|


  T T T T S S T T T T S S T T T T S S T T T T S S
|-------------------------------------------------|
|-------------------------------------------------|
|-------------------------------------------------|
|---------4-----------3-----------4-----------3-5-|
|-2-2-2-2---5-2-2-2-2---3-2-2-2-2---5-2-2-2-2-----|
|-------------------------------------------------|


  T T T T S S T T T T S S T T T T S S S S S S
|---------------------------------------------|
|---------------------------------------------|
|---------------------------------------------|
|---------4-----------3-----------4---3-5-----|
|-2-2-2-2---5-2-2-2-2---3-2-2-2-2---5-----1-3-|
|---------------------------------------------|


  T T T T T T T T T T T T T T T T T T T T T T T T T T T T T T T T
|-----------------------------------------------------------------|
|-----------------------------------------------------------------|
|-----------------------------------------------------------------|
|---------------------------------5-5-5-5-----------------8-8-8-8-|
|---------7-7-7-7-------------------------7-7-7-7-4-4-4-4---------|
|-0-0-0-0---------6-6-6-6-3-3-3-3---------------------------------|
|
| Gtr I
| T T T T T T T T T T T T T T T T T T T T T T T T T T T T T T T T
|-----------------------------------------------------------------|
|-----------------------------------------------------------------|
|-----------------------------------------------------------------|
|-----------------------------------------------------------------|
|---------7-7-7-7-4-4-4-4-------------------------7-7-7-7-4-4-4-4-|
|-0-0-0-0-----------------6-6-6-6-3-3-3-3-6-6-6-6-----------------|


  T T T T T T T T T T T T T T T T T T T T T T T T T T T T T T T T
|-----------------------------------------------------------------|
|-----------------------------------------------------------------|
|-----------------------------------------------------------------|
|---------------------------------5-5-5-5-----------------8-8-8-8-|
|---------7-7-7-7-------------------------7-7-7-7-4-4-4-4---------|
|-0-0-0-0---------6-6-6-6-3-3-3-3---------------------------------|
|
| T T T T T T T T T T T T T T T T T T T T T T T T T T T T T T T T
|-----------------------------------------------------------------|
|-----------------------------------------------------------------|
|-----------------------------------------------------------------|
|-----------------------------------------------------------------|
|---------7-7-7-7-4-4-4-4-------------------------7-7-7-7-4-4-4-4-|
|-0-0-0-0-----------------6-6-6-6-3-3-3-3-6-6-6-6-----------------|


  T T T T T T T T T T T T T T T T T T T T T T T T T T T T T T T T
|-----------------------------------------------------------------|
|-----------------------------------------------------------------|
|-----------------------------------------------------------------|
|---------------------------------5-5-5-5-----------------8-8-8-8-|
|---------7-7-7-7-------------------------7-7-7-7-4-4-4-4---------|
|-0-0-0-0---------6-6-6-6-3-3-3-3---------------------------------|
|
| T T T T T T T T T T T T T T T T T T T T T T T T T T T T T T T T
|-----------------------------------------------------------------|
|-----------------------------------------------------------------|
|-----------------------------------------------------------------|
|-----------------------------------------------------------------|
|---------7-7-7-7-4-4-4-4-------------------------7-7-7-7-4-4-4-4-|
|-0-0-0-0-----------------6-6-6-6-3-3-3-3-6-6-6-6-----------------|


  T T T T T T T T T T T T T T T T T T T T T T T T T T T T T T T T
|-----------------------------------------------------------------|
|-----------------------------------------------------------------|
|-----------------------------------------------------------------|
|---------------------------------5-5-5-5-----------------8-8-8-8-|
|---------7-7-7-7-------------------------7-7-7-7-4-4-4-4---------|
|-0-0-0-0---------6-6-6-6-3-3-3-3---------------------------------|
|
| T T T T T T T T T T T T T T T T T T T T T T T T T T T T T T T T
|-----------------------------------------------------------------|
|-----------------------------------------------------------------|
|-----------------------------------------------------------------|
|-----------------------------------------------------------------|
|---------7-7-7-7-4-4-4-4-------------------------7-7-7-7-4-4-4-4-|
|-0-0-0-0-----------------6-6-6-6-3-3-3-3-6-6-6-6-----------------|


  S S S S E S S E S S E S S   S S S S E S S E S S E S S
|---------------------------|----------------------------|
|---------------------------|----------------------------|
|-9-8-----------6-----7-----|-9-8-----------6-----7------|
|-9-8-6-8-3-5-3-6-6-5-7-6-8-|-9-8-6-8-3-5-3-6-6-5-7-6-8--|
|-7-6-6-8-3-5-3-4-6-5-5-6-8-|-7-6-6-8-3-5-3-4-6-5-5-6-8--|
|-----4-6-1-3-1---4-3---4-6-|-----4-6-1-3-1---4-3---4-6--|


  S S S S E S S E S S E S S   S S S S E S S E S S E S S
|---------------------------|----------------------------|
|---------------------------|----------------------------|
|-9-8-----------6-----7-----|-9-8-----------6-----7------|
|-9-8-6-8-3-5-3-6-6-5-7-6-8-|-9-8-6-8-3-5-3-6-6-5-7-6-8--|
|-7-6-6-8-3-5-3-4-6-5-5-6-8-|-7-6-6-8-3-5-3-4-6-5-5-6-8--|
|-----4-6-1-3-1---4-3---4-6-|-----4-6-1-3-1---4-3---4-6--|


  H    H      H    H      H    H      H    H
|-----------|-----------|-----------|-----------|
|-----------|-----------|-----------|-----------|
|-4---------|-4---------|-4---------|-4---------|
|-4----3----|-4----3----|-4----3----|-4----3----|
|-2----3----|-2----3----|-2----3----|-2----3----|
|------1----|------1----|------1----|------1----|
|
| H    H      H    H      H    H      H    H
|-----------|-----------|-----------|-----------|
|-----------|-----------|-----------|-----------|
|-----------|-----------|-----------|-----------|
|-4---------|-4---------|-4---------|-4---------|
|-5----3----|-5----3----|-5----3----|-5----3----|
|------4----|------4----|------4----|------4----|


  E T T T T E T T T T E T T T T S S S S
|---------------------------------------|
|---------------------------------------|
|-----------4---------3---------4-3-1-3-|
|-4-------------------------------------|
|---2-2-2-2---2-2-2-2---2-2-2-2---------|
|---------------------------------------|
|
| E T T T T E T T T T E T T T T S S S S
|---------------------------------------|
|---------------------------------------|
|-----------7---------6---------7-6-4-6-|
|-4-------------------------------------|
|---2-2-2-2---2-2-2-2---2-2-2-2---------|
|---------------------------------------|


  E T T T T E T T T T E T T T T S S S S
|---------------------------------------|
|---------------------------------------|
|---------------------------------------|
|-----------3---------2---------6-3-----|
|-3---------------------------------5---|
|---1-1-1-1---1-1-1-1---1-1-1-1-------4-|
|
| E T T T T E T T T T E T T T T S S S S
|---------------------------------------|
|---------------------------------------|
|---------------------------------------|
|-----------6---------5---------6-3-----|
|-3---------------------------------5---|
|---1-1-1-1---1-1-1-1---1-1-1-1-------4-|


  E T T T T E T T T T E T T T T E T T T T
|-----------------------------------------|
|-----------------------------------------|
|-----------------------------------------|
|-9-------------------8-------------------|
|-----------7-------------------6---------|
|---4-4-4-4---4-4-4-4---3-3-3-3---3-3-3-3-|
|
| E T T T T E T T T T E T T T T E T T T T
|-----------------------------------------|
|-----------------------------------------|
|-----------------------------------------|
|-9-------------------8-------------------|
|-----------7-------------------6---------|
|---4-4-4-4---4-4-4-4---3-3-3-3---3-3-3-3-|


  E T T T T E T T T T E T T T T S S S S
|----------------------------------------|
|----------------------------------------|
|-----------4---------3---------4-3-1-3--|
|-4--------------------------------------|
|---2-2-2-2---2-2-2-2---2-2-2-2----------|
|----------------------------------------|
|
| E T T T T E T T T T E T T T T S S S S
|----------------------------------------|
|----------------------------------------|
|-----------7---------6---------7-6-4-6--|
|-4--------------------------------------|
|---2-2-2-2---2-2-2-2---2-2-2-2----------|
|----------------------------------------|


  E T T T T E T T T T E T T T T S S S S
|---------------------------------------|
|---------------------------------------|
|---------------------------------------|
|-----------3---------2---------6-3-----|
|-3---------------------------------5---|
|---1-1-1-1---1-1-1-1---1-1-1-1-------4-|
|
| E T T T T E T T T T E T T T T S S S S
|---------------------------------------|
|---------------------------------------|
|---------------------------------------|
|-----------6---------5---------6-3-----|
|-3---------------------------------5---|
|---1-1-1-1---1-1-1-1---1-1-1-1-------4-|


  E T T T T E T T T T E T T T T E T T T T
|------------------------------------------|
|------------------------------------------|
|------------------------------------------|
|-9-------------------8--------------------|
|-----------7-------------------6----------|
|---4-4-4-4---4-4-4-4---3-3-3-3---3-3-3-3--|
|
| E T T T T E T T T T E T T T T E T T T T
|------------------------------------------|
|------------------------------------------|
|------------------------------------------|
|-9-------------------8--------------------|
|-----------7-------------------6----------|
|---4-4-4-4---4-4-4-4---3-3-3-3---3-3-3-3--|


  E T T T T E T T T T E T T T T S S S S
|---------------------------------------|
|---------------------------------------|
|-----------4---------3---------4-3-1-3-|
|-4-------------------------------------|
|---2-2-2-2---2-2-2-2---2-2-2-2---------|
|---------------------------------------|
|
| E T T T T E T T T T E T T T T S S S S
|---------------------------------------|
|---------------------------------------|
|-----------7---------6---------7-6-4-6-|
|-4-------------------------------------|
|---2-2-2-2---2-2-2-2---2-2-2-2---------|
|---------------------------------------|


  E T T T T E T T T T E T T T T S S S S
|---------------------------------------|
|---------------------------------------|
|---------------------------------------|
|-----------3---------2---------6-3-----|
|-3---------------------------------5---|
|---1-1-1-1---1-1-1-1---1-1-1-1-------4-|
|
| E T T T T E T T T T E T T T T S S S S
|---------------------------------------|
|---------------------------------------|
|---------------------------------------|
|-----------6---------5---------6-3-----|
|-3---------------------------------5---|
|---1-1-1-1---1-1-1-1---1-1-1-1-------4-|


  E T T T T E T T T T E T T T T E T T T T
|-----------------------------------------|
|-----------------------------------------|
|-----------------------------------------|
|-9-------------------8-------------------|
|-----------7-------------------6---------|
|---4-4-4-4---4-4-4-4---3-3-3-3---3-3-3-3-|
|
| E T T T T E T T T T E T T T T E T T T T
|-----------------------------------------|
|-----------------------------------------|
|-----------------------------------------|
|-9-------------------8-------------------|
|-----------7-------------------6---------|
|---4-4-4-4---4-4-4-4---3-3-3-3---3-3-3-3-|


  E T T T T E T T T T E T T T T S S S S
|----------------------------------------|
|----------------------------------------|
|-----------4---------3---------4-3-1-3--|
|-4--------------------------------------|
|---2-2-2-2---2-2-2-2---2-2-2-2----------|
|----------------------------------------|
|
| E T T T T E T T T T E T T T T S S S S
|----------------------------------------|
|----------------------------------------|
|-----------7---------6---------7-6-4-6--|
|-4--------------------------------------|
|---2-2-2-2---2-2-2-2---2-2-2-2----------|
|----------------------------------------|


  E T T T T E T T T T E T T T T S S S S
|---------------------------------------|
|---------------------------------------|
|---------------------------------------|
|-----------3---------2---------6-3-----|
|-3---------------------------------5---|
|---1-1-1-1---1-1-1-1---1-1-1-1-------4-|
|
| E T T T T E T T T T E T T T T S S S S
|---------------------------------------|
|---------------------------------------|
|---------------------------------------|
|-----------6---------5---------6-3-----|
|-3---------------------------------5---|
|---1-1-1-1---1-1-1-1---1-1-1-1-------4-|


  E T T T T E T T T T E T T T T E T T T T
|------------------------------------------|
|------------------------------------------|
|------------------------------------------|
|-9-------------------8--------------------|
|-----------7-------------------6----------|
|---4-4-4-4---4-4-4-4---3-3-3-3---3-3-3-3--|
|
| E T T T T E T T T T E T T T T E T T T T
|------------------------------------------|
|------------------------------------------|
|------------------------------------------|
|-9-------------------8--------------------|
|-----------7-------------------6----------|
|---4-4-4-4---4-4-4-4---3-3-3-3---3-3-3-3--|


   T  T  T  T T T T T  T  T  T  T  T  T  T  T  T  T  T  T T T T T T T T T T T T T
|---------------------------------------------------------------------------------|
|---------------------------------------------------------------------------------|
|---------------------------------------------------------------------------------|
|-12-12-12-12-9-9-9-9-------------12-12-12-12-11-11-11-11-9-9-9-9-8-8-8-8-9-9-9-9-|
|----------------------9--9--9--9-------------------------------------------------|
|---------------------------------------------------------------------------------|
|
|  T  T  T  T T T T T  T  T  T  T  T  T  T  T  T  T  T  T T T T T T T T T T T T T
|---------------------------------------------------------------------------------|
|---------------------------------------------------------------------------------|
|---------------------------------------------------------------------------------|
|--9--9--9--9----------------------------------8--8--8--8-9-9-9-9-8-8-8-8-5-5-5-5-|
|----------------------------------9--9--9--9-------------------------------------|
|-------------7-7-7-7-10-10-10-10-------------------------------------------------|


   T  T  T  T T T T T T T T T  T  T  T  T T T T T T T T T T T T T T T T T
|-------------------------------------------------------------------------|
|-------------------------------------------------------------------------|
|-------------------------------------------------------------------------|
|-10-10-10-10-7-7-7-7---------10-10-10-10-9-9-9-9-7-7-7-7-6-6-6-6---------|
|---------------------7-7-7-7-------------------------------------8-8-8-8-|
|-------------------------------------------------------------------------|
|
|  T  T  T  T T T T T T T T T  T  T  T  T T T T T T T T T T T T T T T T T
|-------------------------------------------------------------------------|
|-------------------------------------------------------------------------|
|-------------------------------------------------------------------------|
|--7--7--7--7-------------------------------------------------------------|
|-----------------------------------------7-7-7-7-8-8-8-8-5-5-5-5---------|
|-------------5-5-5-5-7-7-7-7--8--8--8--8-------------------------8-8-8-8-|


   T  T  T  T T T T T  T  T  T  T  T  T  T  T  T  T  T  T T T T T T T T T T T T T
|---------------------------------------------------------------------------------|
|---------------------------------------------------------------------------------|
|---------------------------------------------------------------------------------|
|-12-12-12-12-9-9-9-9-------------12-12-12-12-11-11-11-11-9-9-9-9-8-8-8-8-9-9-9-9-|
|----------------------9--9--9--9-------------------------------------------------|
|---------------------------------------------------------------------------------|
|
|  T  T  T  T T T T T  T  T  T  T  T  T  T  T  T  T  T  T T T T T T T T T T T T T
|---------------------------------------------------------------------------------|
|---------------------------------------------------------------------------------|
|---------------------------------------------------------------------------------|
|--9--9--9--9----------------------------------8--8--8--8-9-9-9-9-8-8-8-8-5-5-5-5-|
|----------------------------------9--9--9--9-------------------------------------|
|-------------7-7-7-7-10-10-10-10-------------------------------------------------|


   T  T  T  T T T T T T T T T  T  T  T  T T T T T T T T T T T T T T T T T
|-------------------------------------------------------------------------|
|-------------------------------------------------------------------------|
|-------------------------------------------------------------------------|
|-10-10-10-10-7-7-7-7---------10-10-10-10-9-9-9-9-7-7-7-7-6-6-6-6---------|
|---------------------7-7-7-7-------------------------------------8-8-8-8-|
|-------------------------------------------------------------------------|
|
|  T  T  T  T T T T T T T T T  T  T  T  T T T T T T T T T T T T T T T T T
|-------------------------------------------------------------------------|
|-------------------------------------------------------------------------|
|-------------------------------------------------------------------------|
|--7--7--7--7-------------------------------------------------------------|
|-----------------------------------------7-7-7-7-8-8-8-8-5-5-5-5---------|
|-------------5-5-5-5-7-7-7-7--8--8--8--8-------------------------8-8-8-8-|


   T  T  T  T T T T T  T  T  T  T  T  T  T  T  T  T  T  T T T T T T T T T T T T T
|---------------------------------------------------------------------------------|
|---------------------------------------------------------------------------------|
|---------------------------------------------------------------------------------|
|-12-12-12-12-9-9-9-9-------------12-12-12-12-11-11-11-11-9-9-9-9-8-8-8-8-9-9-9-9-|
|----------------------9--9--9--9-------------------------------------------------|
|---------------------------------------------------------------------------------|
|
|  T  T  T  T T T T T  T  T  T  T  T  T  T  T  T  T  T  T T T T T T T T T T T T T
|---------------------------------------------------------------------------------|
|---------------------------------------------------------------------------------|
|---------------------------------------------------------------------------------|
|--9--9--9--9----------------------------------8--8--8--8-9-9-9-9-8-8-8-8-5-5-5-5-|
|----------------------------------9--9--9--9-------------------------------------|
|-------------7-7-7-7-10-10-10-10-------------------------------------------------|


   T  T  T  T T T T T T T T T  T  T  T  T T T T T T T T T T T T T T T T T
|-------------------------------------------------------------------------|
|-------------------------------------------------------------------------|
|-------------------------------------------------------------------------|
|-10-10-10-10-7-7-7-7---------10-10-10-10-9-9-9-9-7-7-7-7-6-6-6-6---------|
|---------------------7-7-7-7-------------------------------------8-8-8-8-|
|-------------------------------------------------------------------------|
|
|  T  T  T  T T T T T T T T T  T  T  T  T T T T T T T T T T T T T T T T T
|-------------------------------------------------------------------------|
|-------------------------------------------------------------------------|
|-------------------------------------------------------------------------|
|--7--7--7--7-------------------------------------------------------------|
|-----------------------------------------7-7-7-7-8-8-8-8-5-5-5-5---------|
|-------------5-5-5-5-7-7-7-7--8--8--8--8-------------------------8-8-8-8-|


   T  T  T  T T T T T  T  T  T  T  T  T  T  T  T  T  T  T T T T T T T T T T T T T
|---------------------------------------------------------------------------------|
|---------------------------------------------------------------------------------|
|---------------------------------------------------------------------------------|
|-12-12-12-12-9-9-9-9-------------12-12-12-12-11-11-11-11-9-9-9-9-8-8-8-8-9-9-9-9-|
|----------------------9--9--9--9-------------------------------------------------|
|---------------------------------------------------------------------------------|
|
|  T  T  T  T T T T T  T  T  T  T  T  T  T  T  T  T  T  T T T T T T T T T T T T T
|---------------------------------------------------------------------------------|
|---------------------------------------------------------------------------------|
|---------------------------------------------------------------------------------|
|--9--9--9--9----------------------------------8--8--8--8-9-9-9-9-8-8-8-8-5-5-5-5-|
|----------------------------------9--9--9--9-------------------------------------|
|-------------7-7-7-7-10-10-10-10-------------------------------------------------|


   T  T  T  T T T T T T T T T  T  T  T  T T T T T T T T T T T T T T T T T
|-------------------------------------------------------------------------|
|-------------------------------------------------------------------------|
|-------------------------------------------------------------------------|
|-10-10-10-10-7-7-7-7---------10-10-10-10-9-9-9-9-7-7-7-7-6-6-6-6---------|
|---------------------7-7-7-7-------------------------------------8-8-8-8-|
|-------------------------------------------------------------------------|
|
|  T  T  T  T T T T T T T T T  T  T  T  T T T T T T T T T T T T T T T T T
|-------------------------------------------------------------------------|
|-------------------------------------------------------------------------|
|-------------------------------------------------------------------------|
|--7--7--7--7-------------------------------------------------------------|
|-----------------------------------------7-7-7-7-8-8-8-8-5-5-5-5---------|
|-------------5-5-5-5-7-7-7-7--8--8--8--8-------------------------8-8-8-8-|


  E T T T T E T T T T E T T T T S S S S
|---------------------------------------|
|---------------------------------------|
|-----------4---------3---------4-3-1-3-|
|-4-------------------------------------|
|---2-2-2-2---2-2-2-2---2-2-2-2---------|
|---------------------------------------|
|
| E T T T T E T T T T E T T T T S S S S
|---------------------------------------|
|---------------------------------------|
|-----------7---------6---------7-6-4-6-|
|-4-------------------------------------|
|---2-2-2-2---2-2-2-2---2-2-2-2---------|
|---------------------------------------|


  E T T T T E T T T T E T T T T S S S S
|---------------------------------------|
|---------------------------------------|
|---------------------------------------|
|-----------3---------2---------6-3-----|
|-3---------------------------------5---|
|---1-1-1-1---1-1-1-1---1-1-1-1-------4-|
|
| E T T T T E T T T T E T T T T S S S S
|---------------------------------------|
|---------------------------------------|
|---------------------------------------|
|-----------6---------5---------6-3-----|
|-3---------------------------------5---|
|---1-1-1-1---1-1-1-1---1-1-1-1-------4-|


  E T T T T E T T T T E T T T T E T T T T
|-----------------------------------------|
|-----------------------------------------|
|-----------------------------------------|
|-9-------------------8-------------------|
|-----------7-------------------6---------|
|---4-4-4-4---4-4-4-4---3-3-3-3---3-3-3-3-|
|
| E T T T T E T T T T E T T T T E T T T T
|-----------------------------------------|
|-----------------------------------------|
|-----------------------------------------|
|-9-------------------8-------------------|
|-----------7-------------------6---------|
|---4-4-4-4---4-4-4-4---3-3-3-3---3-3-3-3-|


  E T T T T E T T T T E T T T T S S S S
|----------------------------------------|
|----------------------------------------|
|-----------4---------3---------4-3-1-3--|
|-4--------------------------------------|
|---2-2-2-2---2-2-2-2---2-2-2-2----------|
|----------------------------------------|
|
| E T T T T E T T T T E T T T T S S S S
|----------------------------------------|
|----------------------------------------|
|-----------7---------6---------7-6-4-6--|
|-4--------------------------------------|
|---2-2-2-2---2-2-2-2---2-2-2-2----------|
|----------------------------------------|


  E T T T T E T T T T E T T T T S S S S
|---------------------------------------|
|---------------------------------------|
|---------------------------------------|
|-----------3---------2---------6-3-----|
|-3---------------------------------5---|
|---1-1-1-1---1-1-1-1---1-1-1-1-------4-|
|
| E T T T T E T T T T E T T T T S S S S
|---------------------------------------|
|---------------------------------------|
|---------------------------------------|
|-----------6---------5---------6-3-----|
|-3---------------------------------5---|
|---1-1-1-1---1-1-1-1---1-1-1-1-------4-|


  E T T T T E T T T T E T T T T E T T T T
|------------------------------------------|
|------------------------------------------|
|------------------------------------------|
|-9-------------------8--------------------|
|-----------7-------------------6----------|
|---4-4-4-4---4-4-4-4---3-3-3-3---3-3-3-3--|
|
| E T T T T E T T T T E T T T T E T T T T
|------------------------------------------|
|------------------------------------------|
|------------------------------------------|
|-9-------------------8--------------------|
|-----------7-------------------6----------|
|---4-4-4-4---4-4-4-4---3-3-3-3---3-3-3-3--|


  E T T T T E T T T T E T T T T S S S S
|---------------------------------------|
|---------------------------------------|
|-----------4---------3---------4-3-1-3-|
|-4-------------------------------------|
|---2-2-2-2---2-2-2-2---2-2-2-2---------|
|---------------------------------------|
|
| E T T T T E T T T T E T T T T S S S S
|---------------------------------------|
|---------------------------------------|
|-----------7---------6---------7-6-4-6-|
|-4-------------------------------------|
|---2-2-2-2---2-2-2-2---2-2-2-2---------|
|---------------------------------------|

[ Tab from: http://www.guitartabs.cc/tabs/i/impaled/dead_inside_tab.html ]
  E T T T T E T T T T E T T T T S S S S
|---------------------------------------|
|---------------------------------------|
|---------------------------------------|
|-----------3---------2---------6-3-----|
|-3---------------------------------5---|
|---1-1-1-1---1-1-1-1---1-1-1-1-------4-|
|
| E T T T T E T T T T E T T T T S S S S
|---------------------------------------|
|---------------------------------------|
|---------------------------------------|
|-----------6---------5---------6-3-----|
|-3---------------------------------5---|
|---1-1-1-1---1-1-1-1---1-1-1-1-------4-|


  E T T T T E T T T T E T T T T E T T T T
|-----------------------------------------|
|-----------------------------------------|
|-----------------------------------------|
|-9-------------------8-------------------|
|-----------7-------------------6---------|
|---4-4-4-4---4-4-4-4---3-3-3-3---3-3-3-3-|
|
| E T T T T E T T T T E T T T T E T T T T
|-----------------------------------------|
|-----------------------------------------|
|-----------------------------------------|
|-9-------------------8-------------------|
|-----------7-------------------6---------|
|---4-4-4-4---4-4-4-4---3-3-3-3---3-3-3-3-|


  E T T T T E T T T T E T T T T S S S S
|----------------------------------------|
|----------------------------------------|
|-----------4---------3---------4-3-1-3--|
|-4--------------------------------------|
|---2-2-2-2---2-2-2-2---2-2-2-2----------|
|----------------------------------------|
|
| E T T T T E T T T T E T T T T S S S S
|----------------------------------------|
|----------------------------------------|
|-----------7---------6---------7-6-4-6--|
|-4--------------------------------------|
|---2-2-2-2---2-2-2-2---2-2-2-2----------|
|----------------------------------------|


  E T T T T E T T T T E T T T T S S S S
|---------------------------------------|
|---------------------------------------|
|---------------------------------------|
|-----------3---------2---------6-3-----|
|-3---------------------------------5---|
|---1-1-1-1---1-1-1-1---1-1-1-1-------4-|
|
| E T T T T E T T T T E T T T T S S S S
|---------------------------------------|
|---------------------------------------|
|---------------------------------------|
|-----------6---------5---------6-3-----|
|-3---------------------------------5---|
|---1-1-1-1---1-1-1-1---1-1-1-1-------4-|


  E T T T T E T T T T E T T T T E T T T T
|------------------------------------------|
|------------------------------------------|
|------------------------------------------|
|-9-------------------8--------------------|
|-----------7-------------------6----------|
|---4-4-4-4---4-4-4-4---3-3-3-3---3-3-3-3--|
|
| E T T T T E T T T T E T T T T E T T T T
|------------------------------------------|
|------------------------------------------|
|------------------------------------------|
|-9-------------------8--------------------|
|-----------7-------------------6----------|
|---4-4-4-4---4-4-4-4---3-3-3-3---3-3-3-3--|


  S T T T T T T S S S S  S T T T T T T  S T T T T T T
|-----------------------------------------------------|
|-----------------------------------------------------|
|-----------------------------------------------------|
|-----------------------------------------------------|
|-7-------------6---7-9-10-------------10-------------|
|---4-4-4-4-4-4---4--------6-6-6-6-6-6----6-6-6-6-6-6-|


  S T T T T T T S S S S S E. S E.
|---------------------------------|
|---------------------------------|
|-----------------------7----6----|
|-----------------------5-8--6-5--|
|-7-------------6---7-9-5-8--4-5--|
|---4-4-4-4-4-4---4-------6----3--|


  S T T T T T T S S S S  S T T T T T T  S T T T T T T
|-----------------------------------------------------|
|-----------------------------------------------------|
|-----------------------------------------------------|
|-----------------------------------------------------|
|-7-------------6---7-9-10-------------10-------------|
|---4-4-4-4-4-4---4--------6-6-6-6-6-6----6-6-6-6-6-6-|


  S T T T T T T S S S S S E. S E.
|---------------------------------|
|---------------------------------|
|-----------------------7----6----|
|-----------------------5-8--6-5--|
|-7-------------6---7-9-5-8--4-5--|
|---4-4-4-4-4-4---4-------6----3--|


  S T T T T T T S S S S S T T T T T T S T T T T T T
|---------------------------------------------------|
|---------------------------------------------------|
|---------------------------------------------------|
|---------------------------------------------------|
|-4-------------3---4-6-7-------------7-------------|
|---1-1-1-1-1-1---1-------3-3-3-3-3-3---3-3-3-3-3-3-|


  S T T T T T T S S S S S S S S S S S S
|-----------------------------------------|
|-----------------------------------------|
|-----------------------------------------|
|-------------------------------5-----8---|
|-4-------------3---4-6-7---------7-4-----|
|---1-1-1-1-1-1---1-------6-0-3-----------|


  S T T T T T T S S S S S T T T T T T S T T T T T T
|---------------------------------------------------|
|---------------------------------------------------|
|---------------------------------------------------|
|---------------------------------------------------|
|-4-------------3---4-6-7-------------7-------------|
|---1-1-1-1-1-1---1-------3-3-3-3-3-3---3-3-3-3-3-3-|


  S T T T T T T S S S S S S S S S S S S
|-----------------------------------------|
|-----------------------------------------|
|-----------------------------------------|
|-------------------------------5-----8---|
|-4-------------3---4-6-7---------7-4-----|
|---1-1-1-1-1-1---1-------6-0-3-----------|


          Q=80
  E E E E E Q.     W          W          W          W
|----------------|----------|----------|----------|------|
|----------------|----------|----------|----------|------|
|----------------|----------|----------|----------|------|
|-4-4-4-4-4------|----------|----------|----------|------|
|-2-2-2-2-2------|----------|----------|----------|------|
|-2-2-2-2-2------|----------|----------|----------|------|


  S S S S S S S E S S S S S S S   S S S S S S S E S S S S S S S
|-------------------------------|--------------------------------|
|-------------------------------|--------------------------------|
|-------------------------------|--------------------------------|
|---------4---4-------------6---|---------4-----------3-2--------|
|-2-3-2-3-4-5-2-6-6-6---2-3---5-|-2-3-2-3-4-5-3-2-2-2-----5-4-1--|
|-2-3-2-3---5---4-4-4-4---------|-2-3-2-3---5-1-0-0-0------------|
|
| S S S S S S S E S S S S S S S   S S S S S S S E S S S S S S S
|-------------------------------|--------------------------------|
|-------------------------------|--------------------------------|
|-------------------------------|--------------------------------|
|---------4---4-------------6---|---------4-----------6-5--------|
|-2-3-2-3-4-5-2-6-6-6---2-3---5-|-2-3-2-3-4-5-3-2-2-2-----8-7-4--|
|-2-3-2-3---5---4-4-4-4---------|-2-3-2-3---5-1-0-0-0------------|


  S S S S S S S E S S S S S S S   S S S S S S S E S S S S S S S
|-------------------------------|--------------------------------|
|-------------------------------|--------------------------------|
|-------------------------------|--------------------------------|
|---------4---4-------------6---|---------4-----------3-2--------|
|-2-3-2-3-4-5-2-6-6-6---2-3---5-|-2-3-2-3-4-5-3-2-2-2-----5-4-1--|
|-2-3-2-3---5---4-4-4-4---------|-2-3-2-3---5-1-0-0-0------------|
|
| S S S S S S S E S S S S S S S   S S S S S S S E S S S S S S S
|-------------------------------|--------------------------------|
|-------------------------------|--------------------------------|
|-------------------------------|--------------------------------|
|---------4---4-------------6---|---------4-----------6-5--------|
|-2-3-2-3-4-5-2-6-6-6---2-3---5-|-2-3-2-3-4-5-3-2-2-2-----8-7-4--|
|-2-3-2-3---5---4-4-4-4---------|-2-3-2-3---5-1-0-0-0------------|


  S S S S S S S E S T T S S S T T S   S S S S S S S E S T T S S S T T S
|-----------------------------------|-----------------------------------|
|-----------------------------------|-----------------------------------|
|-----------------------------------|-----------------------------------|
|---------4---4---------------------|---------4-------------------------|
|-2-3-2-3-4-5-2-6-6-6-6-6-6-6-6-6-6-|-2-3-2-3-4-5-3-2-2-2-2-2-2-2-2-2-2-|
|-2-3-2-3---5---4-4-4-4-4-4-4-4-4-4-|-2-3-2-3---5-1-0-0-0-0-0-0-0-0-0-0-|


                                                                      Q=100
  S S S S S S S E S T T S S S T T S   S S S S S S S E S T T S S S T T S
|-----------------------------------|-----------------------------------|
|-----------------------------------|-----------------------------------|
|-----------------------------------|-----------------------------------|
|---------4---4---------------------|---------4-------------------------|
|-2-3-2-3-4-5-2-6-6-6-6-6-6-6-6-6-6-|-2-3-2-3-4-5-3-2-2-2-2-2-2-2-2-2-2-|
|-2-3-2-3---5---4-4-4-4-4-4-4-4-4-4-|-2-3-2-3---5-1-0-0-0-0-0-0-0-0-0-0-|


   H     H       H     H       H     H       H     H
|-------------|-------------|-------------|-------------|
|-------------|-------------|-------------|-------------|
|-------------|-------------|-------------|-------------|
|-12----11----|-14----13----|-12----11----|-14----13----|
|--9-----9----|-11----11----|--9-----9----|-11----11----|
|--7-----6----|--9-----8----|--7-----6----|--9-----8----|


   H     H       H     H       H     H       H    H
|-------------|-------------|-------------|------------|
|-------------|-------------|-------------|------------|
|-------------|-------------|-------------|------------|
|-12----11----|-14----13----|-12----11----|-10----9----|
|--9-----9----|-11----11----|--9-----9----|--7----7----|
|--7-----6----|--9-----8----|--7-----6----|--5----4----|


  E T T T T E T T T T E T T T T S S S S
|---------------------------------------|
|---------------------------------------|
|-----------4---------3---------4-3-1-3-|
|-4-------------------------------------|
|---2-2-2-2---2-2-2-2---2-2-2-2---------|
|---------------------------------------|
|
| E T T T T E T T T T E T T T T S S S S
|---------------------------------------|
|---------------------------------------|
|-----------7---------6---------7-6-4-6-|
|-4-------------------------------------|
|---2-2-2-2---2-2-2-2---2-2-2-2---------|
|---------------------------------------|


  E T T T T E T T T T E T T T T S S S S
|---------------------------------------|
|---------------------------------------|
|---------------------------------------|
|-----------3---------2---------6-3-----|
|-3---------------------------------5---|
|---1-1-1-1---1-1-1-1---1-1-1-1-------4-|
|
| E T T T T E T T T T E T T T T S S S S
|---------------------------------------|
|---------------------------------------|
|---------------------------------------|
|-----------6---------5---------6-3-----|
|-3---------------------------------5---|
|---1-1-1-1---1-1-1-1---1-1-1-1-------4-|


  E T T T T E T T T T E T T T T E T T T T
|-----------------------------------------|
|-----------------------------------------|
|-----------------------------------------|
|-9-------------------8-------------------|
|-----------7-------------------6---------|
|---4-4-4-4---4-4-4-4---3-3-3-3---3-3-3-3-|
|
| E T T T T E T T T T E T T T T E T T T T
|-----------------------------------------|
|-----------------------------------------|
|-----------------------------------------|
|-9-------------------8-------------------|
|-----------7-------------------6---------|
|---4-4-4-4---4-4-4-4---3-3-3-3---3-3-3-3-|


  E T T T T E T T T T E T T T T S S S S
|----------------------------------------|
|----------------------------------------|
|-----------4---------3---------4-3-1-3--|
|-4--------------------------------------|
|---2-2-2-2---2-2-2-2---2-2-2-2----------|
|----------------------------------------|
|
| E T T T T E T T T T E T T T T S S S S
|----------------------------------------|
|----------------------------------------|
|-----------7---------6---------7-6-4-6--|
|-4--------------------------------------|
|---2-2-2-2---2-2-2-2---2-2-2-2----------|
|----------------------------------------|


  E T T T T E T T T T E T T T T S S S S
|---------------------------------------|
|---------------------------------------|
|---------------------------------------|
|-----------3---------2---------6-3-----|
|-3---------------------------------5---|
|---1-1-1-1---1-1-1-1---1-1-1-1-------4-|
|
| E T T T T E T T T T E T T T T S S S S
|---------------------------------------|
|---------------------------------------|
|---------------------------------------|
|-----------6---------5---------6-3-----|
|-3---------------------------------5---|
|---1-1-1-1---1-1-1-1---1-1-1-1-------4-|


  E T T T T E T T T T E T T T T E T T T T
|------------------------------------------|
|------------------------------------------|
|------------------------------------------|
|-9-------------------8--------------------|
|-----------7-------------------6----------|
|---4-4-4-4---4-4-4-4---3-3-3-3---3-3-3-3--|
|
| E T T T T E T T T T E T T T T E T T T T
|------------------------------------------|
|------------------------------------------|
|------------------------------------------|
|-9-------------------8--------------------|
|-----------7-------------------6----------|
|---4-4-4-4---4-4-4-4---3-3-3-3---3-3-3-3--|


  E T T T T E T T T T E T T T T S S S S
|---------------------------------------|
|---------------------------------------|
|-----------4---------3---------4-3-1-3-|
|-4-------------------------------------|
|---2-2-2-2---2-2-2-2---2-2-2-2---------|
|---------------------------------------|
|
| E T T T T E T T T T E T T T T S S S S
|---------------------------------------|
|---------------------------------------|
|-----------7---------6---------7-6-4-6-|
|-4-------------------------------------|
|---2-2-2-2---2-2-2-2---2-2-2-2---------|
|---------------------------------------|


  E T T T T E T T T T E T T T T S S S S
|---------------------------------------|
|---------------------------------------|
|---------------------------------------|
|-----------3---------2---------6-3-----|
|-3---------------------------------5---|
|---1-1-1-1---1-1-1-1---1-1-1-1-------4-|
|
| E T T T T E T T T T E T T T T S S S S
|---------------------------------------|
|---------------------------------------|
|---------------------------------------|
|-----------6---------5---------6-3-----|
|-3---------------------------------5---|
|---1-1-1-1---1-1-1-1---1-1-1-1-------4-|


  E T T T T E T T T T E T T T T E T T T T
|-----------------------------------------|
|-----------------------------------------|
|-----------------------------------------|
|-9-------------------8-------------------|
|-----------7-------------------6---------|
|---4-4-4-4---4-4-4-4---3-3-3-3---3-3-3-3-|
|
| E T T T T E T T T T E T T T T E T T T T
|-----------------------------------------|
|-----------------------------------------|
|-----------------------------------------|
|-9-------------------8-------------------|
|-----------7-------------------6---------|
|---4-4-4-4---4-4-4-4---3-3-3-3---3-3-3-3-|


  E T T T T E T T T T E T T T T S S S S
|----------------------------------------|
|----------------------------------------|
|-----------4---------3---------4-3-1-3--|
|-4--------------------------------------|
|---2-2-2-2---2-2-2-2---2-2-2-2----------|
|----------------------------------------|
|
| E T T T T E T T T T E T T T T S S S S
|----------------------------------------|
|----------------------------------------|
|-----------7---------6---------7-6-4-6--|
|-4--------------------------------------|
|---2-2-2-2---2-2-2-2---2-2-2-2----------|
|----------------------------------------|


  E T T T T E T T T T E T T T T S S S S
|---------------------------------------|
|---------------------------------------|
|---------------------------------------|
|-----------3---------2---------6-3-----|
|-3---------------------------------5---|
|---1-1-1-1---1-1-1-1---1-1-1-1-------4-|
|
| E T T T T E T T T T E T T T T S S S S
|---------------------------------------|
|---------------------------------------|
|---------------------------------------|
|-----------6---------5---------6-3-----|
|-3---------------------------------5---|
|---1-1-1-1---1-1-1-1---1-1-1-1-------4-|


  E T T T T E T T T T E T T T T E T T T T
|------------------------------------------|
|------------------------------------------|
|------------------------------------------|
|-9-------------------8--------------------|
|-----------7-------------------6----------|
|---4-4-4-4---4-4-4-4---3-3-3-3---3-3-3-3--|
|
| E T T T T E T T T T E T T T T E T T T T
|------------------------------------------|
|------------------------------------------|
|------------------------------------------|
|-9-------------------8--------------------|
|-----------7-------------------6----------|
|---4-4-4-4---4-4-4-4---3-3-3-3---3-3-3-3--|


   T  T  T  T T T T T T T T T  T  T  T  T  T  T  T  T T T T T T T T T T T T T
|-----------------------------------------------------------------------------|
|-----------------------------------------------------------------------------|
|-----------------------------------------------------------------------------|
|-12-12-12-12-9-9-9-9---------12-12-12-12-11-11-11-11-9-9-9-9-8-8-8-8-9-9-9-9-|
|---------------------9-9-9-9-------------------------------------------------|
|-----------------------------------------------------------------------------|
|
|  H                                       H
|-----------------------------------------------------------------------------|
|-----------------------------------------------------------------------------|
|-----------------------------------------------------------------------------|
|--9---------------------------------------8----------------------------------|
|--9---------------------------------------8----------------------------------|
|--7---------------------------------------6----------------------------------|


   T  T  T  T T T T T T T T T  T  T  T  T T T T T T T T T T T T T T T T T
|-------------------------------------------------------------------------|
|-------------------------------------------------------------------------|
|-------------------------------------------------------------------------|
|-10-10-10-10-7-7-7-7---------10-10-10-10-9-9-9-9-7-7-7-7-6-6-6-6---------|
|---------------------7-7-7-7-------------------------------------8-8-8-8-|
|-------------------------------------------------------------------------|
|
|  H                                      H
|-------------------------------------------------------------------------|
|-------------------------------------------------------------------------|
|-------------------------------------------------------------------------|
|--7--------------------------------------6-------------------------------|
|--7--------------------------------------6-------------------------------|
|--5--------------------------------------4-------------------------------|


   T  T  T  T T T T T T T T T  T  T  T  T  T  T  T  T T T T T T T T T T T T T
|-----------------------------------------------------------------------------|
|-----------------------------------------------------------------------------|
|-----------------------------------------------------------------------------|
|-12-12-12-12-9-9-9-9---------12-12-12-12-11-11-11-11-9-9-9-9-8-8-8-8-9-9-9-9-|
|---------------------9-9-9-9-------------------------------------------------|
|-----------------------------------------------------------------------------|
|
|  H                                       H
|-----------------------------------------------------------------------------|
|-----------------------------------------------------------------------------|
|-----------------------------------------------------------------------------|
|--9---------------------------------------8----------------------------------|
|--9---------------------------------------8----------------------------------|
|--7---------------------------------------6----------------------------------|


   T   T  T  T T T T T T T T T  T  T  T  T T T T T T T T T T T T T T T T T
|--------------------------------------------------------------------------|
|--------------------------------------------------------------------------|
|--------------------------------------------------------------------------|
|-10--10-10-10-7-7-7-7---------10-10-10-10-9-9-9-9-7-7-7-7-6-6-6-6---------|
|----------------------7-7-7-7-------------------------------------8-8-8-8-|
|--------------------------------------------------------------------------|
|
|  Q.                                    E H
|--------------------------------------------------------------------------|
|--------------------------------------------------------------------------|
|--------------------------------------------------------------------------|
|--3-------------------------------------5-6-------------------------------|
|--3-------------------------------------5-6-------------------------------|
|--1-------------------------------------3-4-------------------------------|


   T  T  T  T T T T T T T T T  T  T  T  T  T  T  T  T T T T T T T T T T T T T
|-----------------------------------------------------------------------------|
|-----------------------------------------------------------------------------|
|-----------------------------------------------------------------------------|
|-12-12-12-12-9-9-9-9---------12-12-12-12-11-11-11-11-9-9-9-9-8-8-8-8-9-9-9-9-|
|---------------------9-9-9-9-------------------------------------------------|
|-----------------------------------------------------------------------------|
|
|  H                                       H
|-----------------------------------------------------------------------------|
|-----------------------------------------------------------------------------|
|-----------------------------------------------------------------------------|
|--9---------------------------------------8----------------------------------|
|--9---------------------------------------8----------------------------------|
|--7---------------------------------------6----------------------------------|


   T  T  T  T T T T T T T T T  T  T  T  T T T T T T T T T T T T T T T T T
|-------------------------------------------------------------------------|
|-------------------------------------------------------------------------|
|-------------------------------------------------------------------------|
|-10-10-10-10-7-7-7-7---------10-10-10-10-9-9-9-9-7-7-7-7-6-6-6-6---------|
|---------------------7-7-7-7-------------------------------------8-8-8-8-|
|-------------------------------------------------------------------------|
|
|  H                                      H
|-------------------------------------------------------------------------|
|-------------------------------------------------------------------------|
|-------------------------------------------------------------------------|
|--7--------------------------------------6-------------------------------|
|--7--------------------------------------6-------------------------------|
|--5--------------------------------------4-------------------------------|


   T  T  T  T T T T T T T T T  T  T  T  T  T  T  T  T T T T T T T T T T T T T
|-----------------------------------------------------------------------------|
|-----------------------------------------------------------------------------|
|-----------------------------------------------------------------------------|
|-12-12-12-12-9-9-9-9---------12-12-12-12-11-11-11-11-9-9-9-9-8-8-8-8-9-9-9-9-|
|---------------------9-9-9-9-------------------------------------------------|
|-----------------------------------------------------------------------------|
|
|  H                                       H
|-----------------------------------------------------------------------------|
|-----------------------------------------------------------------------------|
|-----------------------------------------------------------------------------|
|--9---------------------------------------8----------------------------------|
|--9---------------------------------------8----------------------------------|
|--7---------------------------------------6----------------------------------|


   T   T  T  T T T T T T T T T  T  T  T  T T T T T T T T T T T T T T T T T
|--------------------------------------------------------------------------|
|--------------------------------------------------------------------------|
|--------------------------------------------------------------------------|
|-10--10-10-10-7-7-7-7---------10-10-10-10-9-9-9-9-7-7-7-7-6-6-6-6---------|
|----------------------7-7-7-7-------------------------------------8-8-8-8-|
|--------------------------------------------------------------------------|
|
|  Q.                           E          H
|--------------------------------------------------------------------------|
|--------------------------------------------------------------------------|
|--------------------------------------------------------------------------|
|--3----------------------------5----------6-------------------------------|
|--3----------------------------5----------6-------------------------------|
|--1----------------------------3----------4-------------------------------|


  T T T T S S T T T T S S T T T T S S T T T T S S
|-------------------------------------------------|
|-------------------------------------------------|
|-------------------------------------------------|
|---------4-----------3-----------4-----------3-5-|
|-2-2-2-2---5-2-2-2-2---3-2-2-2-2---5-2-2-2-2-----|
|-------------------------------------------------|


  T T T T S S T T T T S S T T T T S S S S S S
|---------------------------------------------|
|---------------------------------------------|
|---------------------------------------------|
|---------4-----------3-----------4---3-5-----|
|-2-2-2-2---5-2-2-2-2---3-2-2-2-2---5-----1-3-|
|---------------------------------------------|


  T T T T S S T T T T S S T T T T S S T T T T S S
|-------------------------------------------------|
|-------------------------------------------------|
|-------------------------------------------------|
|---------4-----------3-----------4-----------3-5-|
|-2-2-2-2---5-2-2-2-2---3-2-2-2-2---5-2-2-2-2-----|
|-------------------------------------------------|


  T T T T S S T T T T S S T T T T S S S S S S
|---------------------------------------------|
|---------------------------------------------|
|---------------------------------------------|
|---------4-----------3-----------4---3-5-----|
|-2-2-2-2---5-2-2-2-2---3-2-2-2-2---5-----1-3-|
|---------------------------------------------|


  E E E E E E E E   E E E E E Q.
|-----------------|----------------*|
|-----------------|----------------*|
|-4-----7-4---5-7-|-4-4-4-4-4------*|
|-4-3-6-7-4-3-3-7-|-4-4-4-4-4------*|
|-2-3-6-5-2-3-3-5-|-2-2-2-2-2------*|
|---1-4-----1-----|----------------*|
Comments