Imodium - Divorce Chords & Tabs

 

Divorce Chords & Tabs

Imodium Chords & Tabs

Version: 1 Type: Tab 0 ratings
1 star 2 stars 3 stars 4 stars 5 stars
comments

Divorce Tab

   
this is my tab of the guitar for divorce by IMODIUM

starts off with guitar off

INTRO
e-]
b-]
g-]---7/8\7----7/8\7-----9/10\9-----9/10\9-----5/6\5----5/6\5---7/8\7-------7/8\7
d-]
a-]5-5-----5-5-------7-7--------7-7--------3-3-------3-3-----5-5--------5-5-------
e-]
do this x2 secound time with bass
Verse
e-]
b-]
g-]                     1st time 
d-]-7-7-7-7-7-7-7--9-9-9-9-9-9-9--5-5-5-5-5-5-*--7-7-7-7-7-7
a-]-7-7-7-7-7-7-7--9-9-9-9-9-9-9--5-5-5-5-5-5-*-7-7-7-7-7-7-7
E-]5-5-5-5-5-5-5--7-7-7-7-7-7-7--3-3-3-3-3-3--*5-5-5-5-5-5-5

2nd time put this in where the stars are
*-11-11-11-11-11
*-11-11-111-11-
*9-9-9-9-9-9-9              all that times 2
[ Tab from: http://www.guitartabs.cc/tabs/i/imodium/divorce_tab.html ]
Chorus
e-]
b-]
g-]--------------7-7-7-7-7-7-7
d-]-7-7-7-7-7-7--7-7-7-7-7-7-7--7-7-7-7-7-7--9-9-9-9-9-9-9
a-]-7-7-7-7-7-7-5-5-5-5-5-5-5--7-7-7-7-7-7---9-9-9-9-9-9-9
e-]5-5-5-5-5-5----------------5-5-5-5-5-5---7-7-7-7-7-7-7 

x2 after slide down playing that cord on every secoung fret

bridge
e-]
b-]
g-]
d-]-5-5-5-5-5-5-5----2-2-2-2-2-2-2-2-----------------------5-5-5-5-4-4-4-4-3
a-]-5-5-5-5-5-5-5---2-2-2-2-2-2-2-2     x4 on the 4th go --5-5-5-5-4-4-4-4-3
E-]3-3-3-3-3-3-3 --0-0-0-0-0-0-0-0  ----------------------3-3-3-3-2-2-2-2-1
then back to intro play that all again on the 3rd stop at the verse 
because its a bass solo then come in on the chorus then go from brige to this

e-]
b-]
g-]
d-]3-3-3-3-3-3-3-3-3-3-3-3-3-3-3-3--2-2
a-]3-3-3-3-3-3-3-3-3-3-3-3-3-3-3-3--2-2
E-]1-1-1-1-1-1-1-1-1-1-1-1-1-1-1-1--0-0
thats it normal tuning and dist on whole song.

moderate rock








 
Comments