Immortal Technique - Leaving The Past Chords & Tabs

 

Leaving The Past Chords & Tabs

Immortal Technique Chords & Tabs

Version: 1 Type: Tab

Leaving The Past Tab

This tab is for the riff you hear in the start of the "Leaving the Past"- song by 
Technique. The same riff is played over and over throughout the song. Learn the rythm by 
to the it.
[ Tab from: http://www.guitartabs.cc/tabs/i/immortal_technique/leaving_the_past_tab.html ]
E ----------------3--6--5----6/8--8----10----11----10----10----8-----------|
B ----4-----------------4--------------9-----------------9-----7-----------|
G -------3--------------5--------------10----------------10----8-----------|
D ----------5--------------------------------------------------------------|
A -------------6-----------------------------------------------------------|
E -------------------------------------------------------------------------|


E -8----6--6--6--6----6----5------------3----------------3-------------------|
B -7----5--5--5--5----5----4------------0----------------0-------------------|
G -8----6--6--6--6----6----5------------0----------------0-------------------|
D ---------------------------------------------------------------------------|
A ---------------------------------------------------------------------------|
E -------------------------------------------3--3--3--3-------3--3----3----3-|

http://www.viperrecords.com/imtech/bio.shtml