Immortal - Mountains Of Might Chords & Tabs

 

Mountains Of Might Chords & Tabs

Immortal Chords & Tabs

Version: 1 Type: Tab 0 ratings
1 star 2 stars 3 stars 4 stars 5 stars
comments

Mountains Of Might Tab

   
                    MOUNTAINS OF MIGHT - IMMORTAL
                    =============================
 
                        from "Blizzard Beast"

 
 Transcribed by Joni Lehto & Wille Seitamo

 
 This song starts with an incredible atmospheric intro.

 First strike E-string (low-e) with no volume, then turn volume on. 
 
 
 
 
 Riff A:

 e:---------------------------------------------------------------------
 B:---------------------------------------------------------------------
 G:---------------------------------------------------------------------
 D:---------------------------------------------------------------------
 A:---------------------------------*---------------*-------------------
 E:--777-000-777777--000-777-000-1010-00-101010101010-88-00-888888------
                                                                     
   * These notes are 10's, not 1's and 0's

  ------------------------------------------------------------------------|
  ------------------------------------------------------------------------|
  ------------------------------------------------------------------------|
  ------------------------------------------------------------------------|
  ------------------------------------------------------------------------|
  --777-000-777777--000-777-000-1010-00-101010101010-1212-00-121212121212-|
 
 
 

 Riff B:
 
 e:------------------------------------------------------------
 B:------------------------------------------------------------
 G:------------------------------------------------------------
 D:---------999999-----999----------777777----------555555-----
 A:-----777--------777-----777--555--------555--333--------333-
 E:-000--------------------------------------------------------


 
  -------------------------------------------------------------|
  -------------------------------------------------------------|
  ----------------------------------------------------Ah-Ah----|
  --999-----999999-----999---------777--------555-----4---5----|
  ------777--------777-----777-555-----555-33-----333----------|
  -------------------------------------------------------------|

  Ah = Artificial Harmony


 

 Riff C:

  I'm not sure how many times each note should be played, but I 
  think ou'll figure out it yourself.
 
 
 e:--------------------------------------------------------------
 B:--------------------------------------------------------------
 G:--------------------------------------------------------------
 D:--------------------------------------------------------------
 A:----77777777p5------88888888p7p5----77777777p5------77775555--
 E:-0------------h8-0---------------0------------h8-0------------



 e:--------------------------------------------------------------|
 B:--------------------------------------------------------------|
 G:--------------------------------------------------------------|
 D:------------------------9999-------------------999-777--------|
 A:----77777777p5------8888--------77777777p5-------------101010-|
 E:-0------------h8-0-----------0------------h8-0----------------|

 Riff D:

 This riff may not be like this at all, but this sounds like it. 
[ Tab from: http://www.guitartabs.cc/tabs/i/immortal/mountains_of_might_tab.html ]
  " Storm is getting colder...
 e:-----------------------------------------------|
 B:-----------------------------------------------|
 G:-----------------------------------------------|
 D:-----------------------------------------------|
 A:---7777---8888-------------777777-8-5-8-7-5----|
 E:-0------0------10-0-10---0------------------8--|
                                           


 Riff E:

 Play this riff at furious speed

 e:----------------------------------------------------
 B:----------------------------------------------------
 G:----------------------------------------------------
 D:----------------------------------------------------
 A:---0-999999---0-101010101010---0-12p10p9-10p9-------
 E:-0----------0----------------0---------------h12----

 e:-----------------------------------------------------------|
 B:-----------------------------------------------------------|
 G:-----------------------------------------------------------|
 D:-----------------------------------------------------------|
 A:---0-999999---0-101010101010---0-12p10p9-10p9----10p9------|
 E:-0----------0----------------0---------------h12-----h12---|



 Riff F:

 This riff may not be like this at all, but this sounds like it. 

 e:------------------------------|
 B:------------------------------|
 G:------------------------------|
 D:---999-999-777---777-555-555--|
 A:---777-777-777---777-777-777--|
 E:-0-------------0--------------|



 Riff G:

 e:---------------------------------|---------------------------------|
 B:---------------------------------|---------------------------------|
 G:---------------------------------|---------------------------------|
 D:-----5-------5-------5-------5---|-----7-------7-------7-------7---|
 A:----7-------7-------7-------7----|----7-------7-------7-------7----|
 E:-0-------0-------0-------0-------|-0-------0-------0-------0-------|


   I don't have even a clue what the 2nd guitar is playing


 SONG STRUCTURE:

    - Intro
    - Riff A  x1
    -      B  x1
    -      A  x1
    -      B  x1
    -      C  x1
    -      D  x4
    -      E  x1
    -      D  x4
    -      F  x6
    -      D  x4
    -      E  x1
    -      F  x6
    -      G  x4 (only this)
    -      G  x4 (with 2nd guitar)
    -      F  x8
    -      C  x2
    -      A  x1
    -      B  x1
    -      A  x1
    -      B  x2
    - Melodic and slow riff, which I haven't been able to transcribe 
    - Riff C  x2    
    -      D  x8
    -      F  fade out..

 
 LYRICS:

        Storm is getting colder
        In the place of the frozen sun
        Alone on the mountainside
        Breathing the clearest winds 
        
        Winds are everblowing 
        Blowing off the glaciers
        Snow descent on the valley
        Into the high impassable drifts

        Mountains of might...

        So rightly I am watching 
        These mountains that I know
        Forever standing here
        These mountains northern face

        Mountains of might...

        Icicled peeks as far as the eye can see
        I will reign this place alone
        Cold winds blew into the valley wall 
        Snow was deeper there
        
        Storm is getting colder
        In the place of the frozen sun
        Alone on the mountainside
        Breething the clearest winds 

        Mountains of might...
Comments