Immortal - Battles In The North Chords & Tabs

 

Battles In The North Chords & Tabs

Immortal Chords & Tabs

Version: 1 Type: Tab 0 ratings
1 star 2 stars 3 stars 4 stars 5 stars
comments

Battles In The North Tab


/ The following is the author's own interpretation of the song, to be used -
/ for studying or private use only, removal of any part of this ten line   -
/ header is illegal!!!  Removal of the transcribers name or anything       -
/ relevant to the transcriber is also illegal, as so is the removal of the -
/ place inwhich the tab was downloaded. Publishing as well as printing of  -
/ the tab is illegal without permission of the transcriber and copyright   -
/ owner of the song. Failure to apply to these laws result will in legal   -
/ action from the appropriate parties.                                     -


###############################################
############### DOWNLOADED FROM ###############
######## W W W . I M M O R T A L . N U ########
######## THE OFFICIAL IMMORTAL WEBSITE ########
###############################################


                   Battles in the North
                         Immortal

Legend
------
 p  = pull-off
 /  = slide up/down
!=speed pick note or chord
x=undefined note

[ Tab from: http://www.guitartabs.cc/tabs/i/immortal/battles_in_the_north_tab.html ]
I
speed pick...............|
|-----------------------------------------|
|-----------------------------------------|
|-------------------end1----end2----------|
|-----------------------------------------|
|-8--9--8-9-8--8-9--876765--8888-11101010-|
|-6--7--6-7-8--6-7--654543--6666-9-8-8-8--|
					^
					these chords are strummed, not speed picked
II
|------------------------------------------------------------------------|
|------------------------------------------------------------------------|
|-----------------------------------------------------------------!--!---|
|-!--!-!-----!-!-!--!------!-!-!--!--!-!-!-----!-!-----!-!-!--!---11-10--|
|-2--8-9--!--8-9-12-11--!--8-9-12-11-8-9-8--!--8-9--!--8-9-12-11--12-11--|
|-0--6-7--0--6-7-10-9---0--6-7-10-9--6-7-6--0--6-7--0--6-7-10-9---10-9---|
					end1     end2 (played on repeat)
|----------------------------------------------------------------|--------|---------|
|----------------------------------------------------------------|--------|---------|
|----!-!-----!-!-!--!------!-!-!--!--!-!-!-----!-!-----!-!-!--!--|-!--!---|---------|
|----8-9-----8-9-12-11-----8-9-12-11-8-9-8-----8-9-----8-9-12-11-|-12-11--|-!---!---|
|-!--6-7---!-6-7-10-9----!-6-7-10-9--6-7-6---!-6-7---!-6-7-10-9--|-10-9---|-12--10--|
|-0--------0-------------0-------------------0-------0-----------|--------|-10--8---|

III
------|---------------------------------------------------------------------|
------|---------------------------------------------------------------------|
------|---------------------------------------------------------------------|
-12\9-|--------9999/12121212121212\999999999/13131313131313\888888888/12\9--|
-10\7-|-77777777777/10101010101010\777777777/11111111111111\666666666/10\7--|
----0-|-0000000--------------------0-------------------------------------0--|

IV
|-------------------------------------------------|
|-------------------------------------------------|
|---------------------8-8-------------------------|
|---------------------6-6-------------------------| here he sings "Battles.... Battles in the North"
|-2-222222-5p22222222-6-6-222222226p22225p222222--| this is the best I could come up with given that the drums and voice
|-0-000000-3p00000000-----000000004p00003p000000--| cover the guitars at this point in the song
V				   VI	
|-------------------------|--------------------------(--------)(---------|
|-------------------------|--------------------------(--end1--)(----end2-|
|--!-----!-----!-----!-!--|-----!-!-----!-!!-----!-!-(--------)(--!------|
|--5--!--5---985--!--9-8--|--!--6\5--!--5-45--!--6\5-(--------)(--4------|
|--7--6--7--6767--6--7-6--|--2--4\3--2--3-23--2--4\3-(-2--2---)(--2------|
|-----8-----8-----8-------|--0-------0--------0------(--43-10-)(---------|
									mute..|
lead

|-------------------------------------|
|--!--!---!--!-----!-!----!--!--!--!--|
|--4--3-x-4--3--x--4-3-x--4--3--6--7--|
|-------------------------------------|
|-------------------------------------|
|-------------------------------------|

VII        "For the kings of the ravenrealms"
|----------------------------------------------------------|
|----------------------------------------------------------|
|----------------------------------------------------------|
|-2----------10-------9--------10--------9---------10------|
|-2----------8--------7---------8--------7----------8------|
|-0--------------------------------------------------------|


Order : 
I/
II(it's up to you to figure out the repeats)
/III/
II/
III/
IV/
V/
VI/
V/
VI/
V/
I/
II(with lead)/
III/
VI/
VII/
IV
Comments